ISO-10303-21;
HEADER;
FILE_DESCRIPTION (( 'STEP AP203' ),
    '1' );
FILE_NAME ('962872.step',
    '2021-10-28T09:22:38',
    ( '' ),
    ( '' ),
    'SwSTEP 2.0',
    'SolidWorks 2019',
    '' );
FILE_SCHEMA (( 'CONFIG_CONTROL_DESIGN' ));
ENDSEC;

DATA;
#1 = DIRECTION ( 'NONE',  ( -3.491481338843133355E-15, 1.224646799147353207E-16, -1.000000000000000000 ) ) ;
#2 = AXIS2_PLACEMENT_3D ( 'NONE', #61, #101, #143 ) ;
#3 = CARTESIAN_POINT ( 'NONE',  ( 2.478951750578624367E-14, -8.731519772946173392E-16, 7.099999999999999645 ) ) ;
#4 = AXIS2_PLACEMENT_3D ( 'NONE', #3, #28, #15 ) ;
#5 = APPROVAL_ROLE ( '' ) ;
#6 =( GEOMETRIC_REPRESENTATION_CONTEXT ( 3 ) GLOBAL_UNCERTAINTY_ASSIGNED_CONTEXT ( ( #185 ) ) GLOBAL_UNIT_ASSIGNED_CONTEXT ( ( #93, #128, #195 ) ) REPRESENTATION_CONTEXT ( 'NONE', 'WORKASPACE' ) );
#7 = PERSON_AND_ORGANIZATION ( #126, #202 ) ;
#8 = APPROVAL_PERSON_ORGANIZATION ( #186, #47, #114 ) ;
#9 = ORIENTED_EDGE ( 'NONE', *, *, #57, .T. ) ;
#10 = PERSON_AND_ORGANIZATION_ROLE ( 'classification_officer' ) ;
#11 = CC_DESIGN_PERSON_AND_ORGANIZATION_ASSIGNMENT ( #106, #144, ( #50 ) ) ;
#12 = DIRECTION ( 'NONE',  ( -3.491481338843133355E-15, 1.229791517316362731E-16, -1.000000000000000000 ) ) ;
#13 = APPROVAL_PERSON_ORGANIZATION ( #7, #23, #66 ) ;
#14 = DIRECTION ( 'NONE',  ( 0.0000000000000000000, 1.000000000000000000, 0.0000000000000000000 ) ) ;
#15 = DIRECTION ( 'NONE',  ( 0.0000000000000000000, 1.000000000000000000, 0.0000000000000000000 ) ) ;
#16 = CC_DESIGN_DATE_AND_TIME_ASSIGNMENT ( #40, #52, ( #50 ) ) ;
#17 = DIRECTION ( 'NONE',  ( 4.275831445896958607E-31, 1.000000000000000000, 1.224646799147353207E-16 ) ) ;
#18 = VERTEX_POINT ( 'NONE', #53 ) ;
#19 = ORIENTED_EDGE ( 'NONE', *, *, #103, .T. ) ;
#20 = CARTESIAN_POINT ( 'NONE',  ( 3.834111868603701795E-14, 1.499999999999997113, 10.98133283987161590 ) ) ;
#21 = VERTEX_POINT ( 'NONE', #130 ) ;
#22 = ADVANCED_FACE ( 'NONE', ( #152 ), #115, .F. ) ;
#23 = APPROVAL ( #37, 'UNSPECIFIED' ) ;
#24 = ORIENTED_EDGE ( 'NONE', *, *, #82, .T. ) ;
#25 = APPROVAL_STATUS ( 'not_yet_approved' ) ;
#26 = CIRCLE ( 'NONE', #74, 0.4599999999999995204 ) ;
#27 = EDGE_CURVE ( 'NONE', #102, #102, #81, .T. ) ;
#28 = DIRECTION ( 'NONE',  ( -3.491481338843133355E-15, 1.229791517316362731E-16, -1.000000000000000000 ) ) ;
#29 = FACE_OUTER_BOUND ( 'NONE', #217, .T. ) ;
#30 = ADVANCED_BREP_SHAPE_REPRESENTATION ( '962872', ( #137, #205, #69 ), #6 ) ;
#31 = CC_DESIGN_APPROVAL ( #47, ( #146 ) ) ;
#32 = DIRECTION ( 'NONE',  ( 0.0000000000000000000, 1.000000000000000000, 0.0000000000000000000 ) ) ;
#33 = DIRECTION ( 'NONE',  ( 3.491481338843133355E-15, -1.224646799147353207E-16, 1.000000000000000000 ) ) ;
#34 = CARTESIAN_POINT ( 'NONE',  ( 2.478951750578624367E-14, 1.124819836996389237E-32, 7.099999999999999645 ) ) ;
#35 = AXIS2_PLACEMENT_3D ( 'NONE', #63, #33, #83 ) ;
#36 = DATE_AND_TIME ( #92, #138 ) ;
#37 = APPROVAL_STATUS ( 'not_yet_approved' ) ;
#38 = SECURITY_CLASSIFICATION_LEVEL ( 'unclassified' ) ;
#39 = APPLICATION_PROTOCOL_DEFINITION ( 'international standard', 'config_control_design', 1994, #84 ) ;
#40 = DATE_AND_TIME ( #197, #156 ) ;
#41 = CC_DESIGN_DATE_AND_TIME_ASSIGNMENT ( #77, #80, ( #146 ) ) ;
#42 = EDGE_LOOP ( 'NONE', ( #135 ) ) ;
#43 = AXIS2_PLACEMENT_3D ( 'NONE', #188, #1, #14 ) ;
#44 = LOCAL_TIME ( 11, 22, 38.00000000000000000, #199 ) ;
#45 = APPLICATION_CONTEXT ( 'configuration controlled 3d designs of mechanical parts and assemblies' ) ;
#46 = FACE_BOUND ( 'NONE', #112, .T. ) ;
#47 = APPROVAL ( #25, 'UNSPECIFIED' ) ;
#48 = CARTESIAN_POINT ( 'NONE',  ( 5.845658291840187593E-16, -2.050380918943501214E-17, 0.1674263077624549845 ) ) ;
#49 = FACE_OUTER_BOUND ( 'NONE', #42, .T. ) ;
#50 = PRODUCT_DEFINITION ( 'UNKNOWN', '', #105, #86 ) ;
#51 = DIRECTION ( 'NONE',  ( -4.275831445896958607E-31, -1.000000000000000000, -1.224646799147353207E-16 ) ) ;
#52 = DATE_TIME_ROLE ( 'creation_date' ) ;
#53 = CARTESIAN_POINT ( 'NONE',  ( 2.478951750578624367E-14, 0.4599999999999986322, 7.099999999999999645 ) ) ;
#54 = PERSON_AND_ORGANIZATION ( #126, #202 ) ;
#55 = CALENDAR_DATE ( 2021, 28, 10 ) ;
#56 = ORIENTED_EDGE ( 'NONE', *, *, #176, .T. ) ;
#57 = EDGE_CURVE ( 'NONE', #18, #18, #201, .T. ) ;
#58 = CALENDAR_DATE ( 2021, 28, 10 ) ;
#59 = CARTESIAN_POINT ( 'NONE',  ( 1.326762908760390423E-13, 8.998558695971077224E-33, 38.00000000000000000 ) ) ;
#60 = EDGE_LOOP ( 'NONE', ( #169 ) ) ;
#61 = CARTESIAN_POINT ( 'NONE',  ( 3.834111868603701795E-14, -1.350474997530171681E-15, 10.98133283987161590 ) ) ;
#62 = DIRECTION ( 'NONE',  ( 3.491481338843133355E-15, -1.224646799147353207E-16, 1.000000000000000000 ) ) ;
#63 = CARTESIAN_POINT ( 'NONE',  ( 1.906192921252232855E-15, -6.686024735685322183E-17, 0.5459553513993090634 ) ) ;
#64 = AXIS2_PLACEMENT_3D ( 'NONE', #99, #12, #32 ) ;
#65 = CARTESIAN_POINT ( 'NONE',  ( 3.834111868603701795E-14, -1.350474997530171681E-15, 10.98133283987161590 ) ) ;
#66 = APPROVAL_ROLE ( '' ) ;
#67 = ADVANCED_FACE ( 'NONE', ( #46, #29 ), #168, .T. ) ;
#68 = COORDINATED_UNIVERSAL_TIME_OFFSET ( 1, 0, .AHEAD. ) ;
#69 = AXIS2_PLACEMENT_3D ( 'NONE', #94, #193, #71 ) ;
#70 = PERSON_AND_ORGANIZATION ( #126, #202 ) ;
#71 = DIRECTION ( 'NONE',  ( 1.000000000000000000, 0.0000000000000000000, 0.0000000000000000000 ) ) ;
#72 = APPROVAL ( #124, 'UNSPECIFIED' ) ;
#73 = COORDINATED_UNIVERSAL_TIME_OFFSET ( 1, 0, .AHEAD. ) ;
#74 = AXIS2_PLACEMENT_3D ( 'NONE', #48, #118, #158 ) ;
#75 = CC_DESIGN_APPROVAL ( #23, ( #50 ) ) ;
#76 = LOCAL_TIME ( 11, 22, 38.00000000000000000, #73 ) ;
#77 = DATE_AND_TIME ( #55, #44 ) ;
#78 = ORIENTED_EDGE ( 'NONE', *, *, #27, .F. ) ;
#79 = EDGE_LOOP ( 'NONE', ( #78 ) ) ;
#80 = DATE_TIME_ROLE ( 'classification_date' ) ;
#81 = CIRCLE ( 'NONE', #181, 1.499999999999999778 ) ;
#82 = EDGE_CURVE ( 'NONE', #110, #110, #214, .T. ) ;
#83 = DIRECTION ( 'NONE',  ( -5.135813185032644414E-31, -1.000000000000000000, -1.445602896647343601E-16 ) ) ;
#84 = APPLICATION_CONTEXT ( 'configuration controlled 3d designs of mechanical parts and assemblies' ) ;
#85 = DIRECTION ( 'NONE',  ( 0.0000000000000000000, 1.000000000000000000, 0.0000000000000000000 ) ) ;
#86 = DESIGN_CONTEXT ( 'detailed design', #84, 'design' ) ;
#87 = DIRECTION ( 'NONE',  ( -3.491481338843133355E-15, 1.224646799147353207E-16, -1.000000000000000000 ) ) ;
#88 = FACE_OUTER_BOUND ( 'NONE', #79, .T. ) ;
#89 = CC_DESIGN_SECURITY_CLASSIFICATION ( #146, ( #105 ) ) ;
#90 = CARTESIAN_POINT ( 'NONE',  ( 1.326762908760390423E-13, 1.199999999999995293, 38.00000000000000000 ) ) ;
#91 = ADVANCED_FACE ( 'NONE', ( #119, #190 ), #142, .T. ) ;
#92 = CALENDAR_DATE ( 2021, 28, 10 ) ;
#93 =( LENGTH_UNIT ( ) NAMED_UNIT ( * ) SI_UNIT ( .MILLI., .METRE. ) );
#94 = CARTESIAN_POINT ( 'NONE',  ( 0.0000000000000000000, 0.0000000000000000000, 0.0000000000000000000 ) ) ;
#95 = CC_DESIGN_PERSON_AND_ORGANIZATION_ASSIGNMENT ( #70, #210, ( #105 ) ) ;
#96 = APPROVAL_DATE_TIME ( #165, #47 ) ;
#97 = AXIS2_PLACEMENT_3D ( 'NONE', #34, #140, #51 ) ;
#98 = EDGE_LOOP ( 'NONE', ( #56 ) ) ;
#99 = CARTESIAN_POINT ( 'NONE',  ( 2.478951750578624367E-14, -8.731519772946173392E-16, 7.099999999999999645 ) ) ;
#100 = CARTESIAN_POINT ( 'NONE',  ( 0.0000000000000000000, 0.0000000000000000000, 0.0000000000000000000 ) ) ;
#101 = DIRECTION ( 'NONE',  ( -3.491481338843133355E-15, 1.229791517316362731E-16, -1.000000000000000000 ) ) ;
#102 = VERTEX_POINT ( 'NONE', #177 ) ;
#103 = EDGE_CURVE ( 'NONE', #208, #208, #178, .T. ) ;
#104 = CARTESIAN_POINT ( 'NONE',  ( 2.478951750578624367E-14, 1.124819836996389237E-32, 7.099999999999999645 ) ) ;
#105 = PRODUCT_DEFINITION_FORMATION_WITH_SPECIFIED_SOURCE ( 'ANY', '', #107, .NOT_KNOWN. ) ;
#106 = PERSON_AND_ORGANIZATION ( #126, #202 ) ;
#107 = PRODUCT ( '962872', '962872', '', ( #211 ) ) ;
#108 = PERSON_AND_ORGANIZATION ( #126, #202 ) ;
#109 = EDGE_CURVE ( 'NONE', #21, #21, #129, .T. ) ;
#110 = VERTEX_POINT ( 'NONE', #20 ) ;
#111 = PERSON_AND_ORGANIZATION ( #126, #202 ) ;
#112 = EDGE_LOOP ( 'NONE', ( #131 ) ) ;
#113 = AXIS2_PLACEMENT_3D ( 'NONE', #104, #62, #155 ) ;
#114 = APPROVAL_ROLE ( '' ) ;
#115 = PLANE ( 'NONE',  #166 ) ;
#116 = ORIENTED_EDGE ( 'NONE', *, *, #103, .F. ) ;
#117 = DIRECTION ( 'NONE',  ( -3.491481338843133355E-15, 1.229791517316362731E-16, -1.000000000000000000 ) ) ;
#118 = DIRECTION ( 'NONE',  ( -3.491481338843133355E-15, 1.224646799147353207E-16, -1.000000000000000000 ) ) ;
#119 = FACE_OUTER_BOUND ( 'NONE', #60, .T. ) ;
#120 = LOCAL_TIME ( 11, 22, 38.00000000000000000, #216 ) ;
#121 = DIRECTION ( 'NONE',  ( 4.275831445896959482E-31, 1.000000000000000000, 1.224646799147353207E-16 ) ) ;
#122 = ADVANCED_FACE ( 'NONE', ( #49, #175 ), #206, .T. ) ;
#123 = FACE_OUTER_BOUND ( 'NONE', #187, .T. ) ;
#124 = APPROVAL_STATUS ( 'not_yet_approved' ) ;
#125 = CLOSED_SHELL ( 'NONE', ( #122, #167, #22, #67, #149 ) ) ;
#126 = PERSON ( 'UNSPECIFIED', 'UNSPECIFIED', 'UNSPECIFIED', ('UNSPECIFIED'), ('UNSPECIFIED'), ('UNSPECIFIED') ) ;
#127 = CALENDAR_DATE ( 2021, 28, 10 ) ;
#128 =( NAMED_UNIT ( * ) PLANE_ANGLE_UNIT ( ) SI_UNIT ( $, .RADIAN. ) );
#129 = CIRCLE ( 'NONE', #64, 0.4599999999999995204 ) ;
#130 = CARTESIAN_POINT ( 'NONE',  ( 2.478951750578624367E-14, 0.4599999999999986322, 7.099999999999999645 ) ) ;
#131 = ORIENTED_EDGE ( 'NONE', *, *, #57, .F. ) ;
#132 = CONICAL_SURFACE ( 'NONE', #35, 1.499999999999995559, 1.221730476396026388 ) ;
#133 = EDGE_LOOP ( 'NONE', ( #116 ) ) ;
#134 = CC_DESIGN_PERSON_AND_ORGANIZATION_ASSIGNMENT ( #54, #147, ( #107 ) ) ;
#135 = ORIENTED_EDGE ( 'NONE', *, *, #82, .F. ) ;
#136 = ORIENTED_EDGE ( 'NONE', *, *, #176, .F. ) ;
#137 = MANIFOLD_SOLID_BREP ( 'Corps-Déplacer/Copier1[1]', #125 ) ;
#138 = LOCAL_TIME ( 11, 22, 38.00000000000000000, #68 ) ;
#139 = DIRECTION ( 'NONE',  ( -3.491481338843133355E-15, 1.224646799147353207E-16, -1.000000000000000000 ) ) ;
#140 = DIRECTION ( 'NONE',  ( 3.491481338843133355E-15, -1.224646799147353207E-16, 1.000000000000000000 ) ) ;
#141 = FACE_OUTER_BOUND ( 'NONE', #98, .T. ) ;
#142 = CYLINDRICAL_SURFACE ( 'NONE', #164, 0.4599999999999995204 ) ;
#143 = DIRECTION ( 'NONE',  ( 0.0000000000000000000, 1.000000000000000000, 0.0000000000000000000 ) ) ;
#144 = PERSON_AND_ORGANIZATION_ROLE ( 'creator' ) ;
#145 = PERSON_AND_ORGANIZATION_ROLE ( 'creator' ) ;
#146 = SECURITY_CLASSIFICATION ( '', '', #38 ) ;
#147 = PERSON_AND_ORGANIZATION_ROLE ( 'design_owner' ) ;
#148 = APPROVAL_DATE_TIME ( #194, #23 ) ;
#149 = ADVANCED_FACE ( 'NONE', ( #157 ), #221, .F. ) ;
#150 = EDGE_LOOP ( 'NONE', ( #136 ) ) ;
#151 = CC_DESIGN_PERSON_AND_ORGANIZATION_ASSIGNMENT ( #108, #10, ( #146 ) ) ;
#152 = FACE_OUTER_BOUND ( 'NONE', #133, .T. ) ;
#153 = EDGE_LOOP ( 'NONE', ( #218 ) ) ;
#154 = EDGE_LOOP ( 'NONE', ( #19 ) ) ;
#155 = DIRECTION ( 'NONE',  ( -4.275831445896958607E-31, -1.000000000000000000, -1.224646799147353207E-16 ) ) ;
#156 = LOCAL_TIME ( 11, 22, 38.00000000000000000, #213 ) ;
#157 = FACE_OUTER_BOUND ( 'NONE', #200, .T. ) ;
#158 = DIRECTION ( 'NONE',  ( -4.186804226928778201E-31, -1.000000000000000000, -1.178480622266853943E-16 ) ) ;
#159 = PRODUCT_DEFINITION_SHAPE ( 'NONE', 'NONE',  #50 ) ;
#160 = DIRECTION ( 'NONE',  ( -3.491481338843133355E-15, 1.224646799147353207E-16, -1.000000000000000000 ) ) ;
#161 = PRODUCT_RELATED_PRODUCT_CATEGORY ( 'detail', '', ( #107 ) ) ;
#162 = CARTESIAN_POINT ( 'NONE',  ( 5.845658291840186607E-16, -0.4599999999999995204, 0.1674263077624549290 ) ) ;
#163 = PERSON_AND_ORGANIZATION ( #126, #202 ) ;
#164 = AXIS2_PLACEMENT_3D ( 'NONE', #100, #117, #192 ) ;
#165 = DATE_AND_TIME ( #58, #120 ) ;
#166 = AXIS2_PLACEMENT_3D ( 'NONE', #59, #139, #17 ) ;
#167 = ADVANCED_FACE ( 'NONE', ( #88, #204 ), #215, .T. ) ;
#168 = CONICAL_SURFACE ( 'NONE', #183, 1.499999999999998446, 0.2617993877991501850 ) ;
#169 = ORIENTED_EDGE ( 'NONE', *, *, #109, .T. ) ;
#170 = CC_DESIGN_PERSON_AND_ORGANIZATION_ASSIGNMENT ( #163, #145, ( #105 ) ) ;
#171 = ORIENTED_EDGE ( 'NONE', *, *, #109, .F. ) ;
#172 = DIRECTION ( 'NONE',  ( 3.491481338843133355E-15, -1.229791517316362731E-16, 1.000000000000000000 ) ) ;
#173 = APPROVAL_PERSON_ORGANIZATION ( #111, #72, #5 ) ;
#174 = CARTESIAN_POINT ( 'NONE',  ( 1.316288464743861212E-13, -4.616918432785521081E-15, 37.69999999999999574 ) ) ;
#175 = FACE_OUTER_BOUND ( 'NONE', #153, .T. ) ;
#176 = EDGE_CURVE ( 'NONE', #180, #180, #26, .T. ) ;
#177 = CARTESIAN_POINT ( 'NONE',  ( 1.316288464743861212E-13, 1.499999999999995337, 37.69999999999999574 ) ) ;
#178 = CIRCLE ( 'NONE', #43, 1.199999999999999956 ) ;
#179 = APPROVAL_DATE_TIME ( #36, #72 ) ;
#180 = VERTEX_POINT ( 'NONE', #162 ) ;
#181 = AXIS2_PLACEMENT_3D ( 'NONE', #174, #189, #85 ) ;
#182 = ADVANCED_FACE ( 'NONE', ( #123 ), #223, .T. ) ;
#183 = AXIS2_PLACEMENT_3D ( 'NONE', #65, #172, #191 ) ;
#184 = SHAPE_DEFINITION_REPRESENTATION ( #159, #30 ) ;
#185 = UNCERTAINTY_MEASURE_WITH_UNIT (LENGTH_MEASURE( 1.000000000000000082E-05 ), #93, 'distance_accuracy_value', 'NONE');
#186 = PERSON_AND_ORGANIZATION ( #126, #202 ) ;
#187 = EDGE_LOOP ( 'NONE', ( #171 ) ) ;
#188 = CARTESIAN_POINT ( 'NONE',  ( 1.326762908760390423E-13, -4.653657836759941941E-15, 38.00000000000000000 ) ) ;
#189 = DIRECTION ( 'NONE',  ( -3.491481338843133355E-15, 1.224646799147353207E-16, -1.000000000000000000 ) ) ;
#190 = FACE_OUTER_BOUND ( 'NONE', #150, .T. ) ;
#191 = DIRECTION ( 'NONE',  ( 0.0000000000000000000, -1.000000000000000000, 0.0000000000000000000 ) ) ;
#192 = DIRECTION ( 'NONE',  ( 4.293794133377662246E-31, 1.000000000000000000, 1.229791517316362731E-16 ) ) ;
#193 = DIRECTION ( 'NONE',  ( 0.0000000000000000000, 0.0000000000000000000, 1.000000000000000000 ) ) ;
#194 = DATE_AND_TIME ( #127, #76 ) ;
#195 =( NAMED_UNIT ( * ) SI_UNIT ( $, .STERADIAN. ) SOLID_ANGLE_UNIT ( ) );
#196 = AXIS2_PLACEMENT_3D ( 'NONE', #207, #87, #121 ) ;
#197 = CALENDAR_DATE ( 2021, 28, 10 ) ;
#198 = CC_DESIGN_APPROVAL ( #72, ( #105 ) ) ;
#199 = COORDINATED_UNIVERSAL_TIME_OFFSET ( 1, 0, .AHEAD. ) ;
#200 = EDGE_LOOP ( 'NONE', ( #9 ) ) ;
#201 = CIRCLE ( 'NONE', #4, 0.4599999999999995204 ) ;
#202 = ORGANIZATION ( 'UNSPECIFIED', 'UNSPECIFIED', '' ) ;
#203 = CARTESIAN_POINT ( 'NONE',  ( 1.326762908760390423E-13, -4.653657836759941941E-15, 38.00000000000000000 ) ) ;
#204 = FACE_BOUND ( 'NONE', #154, .T. ) ;
#205 = MANIFOLD_SOLID_BREP ( 'Corps-Déplacer/Copier1[2]', #220 ) ;
#206 = CYLINDRICAL_SURFACE ( 'NONE', #196, 1.499999999999998002 ) ;
#207 = CARTESIAN_POINT ( 'NONE',  ( 0.0000000000000000000, 0.0000000000000000000, 0.0000000000000000000 ) ) ;
#208 = VERTEX_POINT ( 'NONE', #90 ) ;
#209 = AXIS2_PLACEMENT_3D ( 'NONE', #203, #160, #219 ) ;
#210 = PERSON_AND_ORGANIZATION_ROLE ( 'design_supplier' ) ;
#211 = MECHANICAL_CONTEXT ( 'NONE', #45, 'mechanical' ) ;
#212 = APPLICATION_PROTOCOL_DEFINITION ( 'international standard', 'config_control_design', 1994, #45 ) ;
#213 = COORDINATED_UNIVERSAL_TIME_OFFSET ( 1, 0, .AHEAD. ) ;
#214 = CIRCLE ( 'NONE', #2, 1.499999999999998446 ) ;
#215 = CONICAL_SURFACE ( 'NONE', #209, 1.199999999999999956, 0.7853981633974453924 ) ;
#216 = COORDINATED_UNIVERSAL_TIME_OFFSET ( 1, 0, .AHEAD. ) ;
#217 = EDGE_LOOP ( 'NONE', ( #24 ) ) ;
#218 = ORIENTED_EDGE ( 'NONE', *, *, #27, .T. ) ;
#219 = DIRECTION ( 'NONE',  ( 0.0000000000000000000, 1.000000000000000000, 0.0000000000000000000 ) ) ;
#220 = CLOSED_SHELL ( 'NONE', ( #182, #91, #222 ) ) ;
#221 = PLANE ( 'NONE',  #97 ) ;
#222 = ADVANCED_FACE ( 'NONE', ( #141 ), #132, .T. ) ;
#223 = PLANE ( 'NONE',  #113 ) ;
ENDSEC;
END-ISO-10303-21;
