ISO-10303-21;
HEADER;
FILE_DESCRIPTION (( 'STEP AP203' ),
    '1' );
FILE_NAME ('962871.step',
    '2021-10-28T09:22:37',
    ( '' ),
    ( '' ),
    'SwSTEP 2.0',
    'SolidWorks 2019',
    '' );
FILE_SCHEMA (( 'CONFIG_CONTROL_DESIGN' ));
ENDSEC;

DATA;
#1 = VERTEX_POINT ( 'NONE', #202 ) ;
#2 = APPROVAL_DATE_TIME ( #89, #46 ) ;
#3 = CARTESIAN_POINT ( 'NONE',  ( 1.906192921252232855E-15, -6.686024735685322183E-17, 0.5459553513993090634 ) ) ;
#4 = VERTEX_POINT ( 'NONE', #90 ) ;
#5 = CARTESIAN_POINT ( 'NONE',  ( 1.326762908760390423E-13, 1.199999999999995293, 38.00000000000000000 ) ) ;
#6 = DIRECTION ( 'NONE',  ( 4.275831445896959482E-31, 1.000000000000000000, 1.224646799147353207E-16 ) ) ;
#7 = DIRECTION ( 'NONE',  ( 1.000000000000000000, 0.0000000000000000000, 0.0000000000000000000 ) ) ;
#8 = CC_DESIGN_PERSON_AND_ORGANIZATION_ASSIGNMENT ( #207, #92, ( #36 ) ) ;
#9 = COORDINATED_UNIVERSAL_TIME_OFFSET ( 1, 0, .AHEAD. ) ;
#10 = ADVANCED_FACE ( 'NONE', ( #48 ), #168, .T. ) ;
#11 = CALENDAR_DATE ( 2021, 28, 10 ) ;
#12 = CARTESIAN_POINT ( 'NONE',  ( 2.478951750578624367E-14, 1.124819836996389237E-32, 7.099999999999999645 ) ) ;
#13 = CC_DESIGN_DATE_AND_TIME_ASSIGNMENT ( #106, #174, ( #58 ) ) ;
#14 = APPROVAL ( #100, 'UNSPECIFIED' ) ;
#15 = ORIENTED_EDGE ( 'NONE', *, *, #161, .T. ) ;
#16 = AXIS2_PLACEMENT_3D ( 'NONE', #70, #93, #59 ) ;
#17 = AXIS2_PLACEMENT_3D ( 'NONE', #38, #108, #57 ) ;
#18 = AXIS2_PLACEMENT_3D ( 'NONE', #162, #33, #7 ) ;
#19 = CYLINDRICAL_SURFACE ( 'NONE', #118, 0.4549999999999995159 ) ;
#20 = PERSON_AND_ORGANIZATION ( #216, #63 ) ;
#21 = FACE_OUTER_BOUND ( 'NONE', #220, .T. ) ;
#22 = DIRECTION ( 'NONE',  ( -3.491481338843133355E-15, 1.224646799147353207E-16, -1.000000000000000000 ) ) ;
#23 = EDGE_CURVE ( 'NONE', #211, #211, #127, .T. ) ;
#24 = AXIS2_PLACEMENT_3D ( 'NONE', #27, #94, #132 ) ;
#25 = APPROVAL_PERSON_ORGANIZATION ( #44, #125, #85 ) ;
#26 = CARTESIAN_POINT ( 'NONE',  ( 2.478951750578624367E-14, 1.124819836996389237E-32, 7.099999999999999645 ) ) ;
#27 = CARTESIAN_POINT ( 'NONE',  ( 1.326762908760390423E-13, 8.998558695971077224E-33, 38.00000000000000000 ) ) ;
#28 = PERSON_AND_ORGANIZATION ( #216, #63 ) ;
#29 =( NAMED_UNIT ( * ) PLANE_ANGLE_UNIT ( ) SI_UNIT ( $, .RADIAN. ) );
#30 = CIRCLE ( 'NONE', #178, 0.4549999999999995159 ) ;
#31 = APPLICATION_PROTOCOL_DEFINITION ( 'international standard', 'config_control_design', 1994, #116 ) ;
#32 = DATE_AND_TIME ( #61, #114 ) ;
#33 = DIRECTION ( 'NONE',  ( 0.0000000000000000000, 0.0000000000000000000, 1.000000000000000000 ) ) ;
#34 = LOCAL_TIME ( 11, 22, 37.00000000000000000, #203 ) ;
#35 = EDGE_LOOP ( 'NONE', ( #104 ) ) ;
#36 = PRODUCT_DEFINITION_FORMATION_WITH_SPECIFIED_SOURCE ( 'ANY', '', #49, .NOT_KNOWN. ) ;
#37 = ORIENTED_EDGE ( 'NONE', *, *, #91, .T. ) ;
#38 = CARTESIAN_POINT ( 'NONE',  ( 1.316288464743861212E-13, -4.616918432785521081E-15, 37.69999999999999574 ) ) ;
#39 = CYLINDRICAL_SURFACE ( 'NONE', #209, 1.499999999999998002 ) ;
#40 = DIRECTION ( 'NONE',  ( 0.0000000000000000000, 1.000000000000000000, 0.0000000000000000000 ) ) ;
#41 = DIRECTION ( 'NONE',  ( 3.491481338843133355E-15, -1.224646799147353207E-16, 1.000000000000000000 ) ) ;
#42 = DIRECTION ( 'NONE',  ( -3.491481338843133355E-15, 1.224646799147353207E-16, -1.000000000000000000 ) ) ;
#43 = DESIGN_CONTEXT ( 'detailed design', #116, 'design' ) ;
#44 = PERSON_AND_ORGANIZATION ( #216, #63 ) ;
#45 = CC_DESIGN_APPROVAL ( #125, ( #124 ) ) ;
#46 = APPROVAL ( #103, 'UNSPECIFIED' ) ;
#47 = ORIENTED_EDGE ( 'NONE', *, *, #91, .F. ) ;
#48 = FACE_OUTER_BOUND ( 'NONE', #204, .T. ) ;
#49 = PRODUCT ( '962871', '962871', '', ( #60 ) ) ;
#50 = EDGE_LOOP ( 'NONE', ( #223 ) ) ;
#51 = CIRCLE ( 'NONE', #17, 1.499999999999999778 ) ;
#52 = ADVANCED_FACE ( 'NONE', ( #137, #138 ), #19, .T. ) ;
#53 = PERSON_AND_ORGANIZATION ( #216, #63 ) ;
#54 = DIRECTION ( 'NONE',  ( -3.491481338843133355E-15, 1.229791517316362731E-16, -1.000000000000000000 ) ) ;
#55 = PLANE ( 'NONE',  #123 ) ;
#56 = CARTESIAN_POINT ( 'NONE',  ( 0.0000000000000000000, 0.0000000000000000000, 0.0000000000000000000 ) ) ;
#57 = DIRECTION ( 'NONE',  ( 0.0000000000000000000, 1.000000000000000000, 0.0000000000000000000 ) ) ;
#58 = PRODUCT_DEFINITION ( 'UNKNOWN', '', #36, #43 ) ;
#59 = DIRECTION ( 'NONE',  ( 0.0000000000000000000, -1.000000000000000000, 0.0000000000000000000 ) ) ;
#60 = MECHANICAL_CONTEXT ( 'NONE', #146, 'mechanical' ) ;
#61 = CALENDAR_DATE ( 2021, 28, 10 ) ;
#62 = ADVANCED_FACE ( 'NONE', ( #158, #192 ), #39, .T. ) ;
#63 = ORGANIZATION ( 'UNSPECIFIED', 'UNSPECIFIED', '' ) ;
#64 = APPROVAL_ROLE ( '' ) ;
#65 = ADVANCED_BREP_SHAPE_REPRESENTATION ( '962871', ( #86, #150, #18 ), #184 ) ;
#66 = LOCAL_TIME ( 11, 22, 37.00000000000000000, #80 ) ;
#67 = EDGE_LOOP ( 'NONE', ( #167 ) ) ;
#68 = DIRECTION ( 'NONE',  ( 3.491481338843133355E-15, -1.224646799147353207E-16, 1.000000000000000000 ) ) ;
#69 = AXIS2_PLACEMENT_3D ( 'NONE', #12, #68, #130 ) ;
#70 = CARTESIAN_POINT ( 'NONE',  ( 3.840627061478823253E-14, -1.352769819742843102E-15, 10.99999309390946323 ) ) ;
#71 = CC_DESIGN_PERSON_AND_ORGANIZATION_ASSIGNMENT ( #218, #196, ( #49 ) ) ;
#72 = CARTESIAN_POINT ( 'NONE',  ( 5.782118527798447024E-16, -2.028094169824549890E-17, 0.1656064565911239683 ) ) ;
#73 = DIRECTION ( 'NONE',  ( -3.491481338843133355E-15, 1.229791517316362731E-16, -1.000000000000000000 ) ) ;
#74 = CARTESIAN_POINT ( 'NONE',  ( 1.326762908760390423E-13, -4.653657836759941941E-15, 38.00000000000000000 ) ) ;
#75 = EDGE_CURVE ( 'NONE', #213, #213, #214, .T. ) ;
#76 = DATE_AND_TIME ( #157, #173 ) ;
#77 = DIRECTION ( 'NONE',  ( -3.491481338843133355E-15, 1.224646799147353207E-16, -1.000000000000000000 ) ) ;
#78 = AXIS2_PLACEMENT_3D ( 'NONE', #3, #176, #143 ) ;
#79 = APPROVAL_DATE_TIME ( #32, #14 ) ;
#80 = COORDINATED_UNIVERSAL_TIME_OFFSET ( 1, 0, .AHEAD. ) ;
#81 = CIRCLE ( 'NONE', #113, 0.4549999999999995159 ) ;
#82 = APPROVAL_PERSON_ORGANIZATION ( #199, #14, #159 ) ;
#83 = PRODUCT_RELATED_PRODUCT_CATEGORY ( 'detail', '', ( #49 ) ) ;
#84 = ADVANCED_FACE ( 'NONE', ( #129 ), #191, .F. ) ;
#85 = APPROVAL_ROLE ( '' ) ;
#86 = MANIFOLD_SOLID_BREP ( 'Corps-Déplacer/Copier1[1]', #221 ) ;
#87 = CC_DESIGN_APPROVAL ( #46, ( #36 ) ) ;
#88 = ORIENTED_EDGE ( 'NONE', *, *, #133, .F. ) ;
#89 = DATE_AND_TIME ( #169, #34 ) ;
#90 = CARTESIAN_POINT ( 'NONE',  ( 5.782118527798445052E-16, -0.4549999999999995159, 0.1656064565911239128 ) ) ;
#91 = EDGE_CURVE ( 'NONE', #4, #4, #81, .T. ) ;
#92 = PERSON_AND_ORGANIZATION_ROLE ( 'design_supplier' ) ;
#93 = DIRECTION ( 'NONE',  ( 3.491481338843133355E-15, -1.229791517316362731E-16, 1.000000000000000000 ) ) ;
#94 = DIRECTION ( 'NONE',  ( -3.491481338843133355E-15, 1.224646799147353207E-16, -1.000000000000000000 ) ) ;
#95 = CIRCLE ( 'NONE', #217, 0.4549999999999995159 ) ;
#96 = CARTESIAN_POINT ( 'NONE',  ( 2.478951750578624367E-14, -8.731519772946173392E-16, 7.099999999999999645 ) ) ;
#97 = COORDINATED_UNIVERSAL_TIME_OFFSET ( 1, 0, .AHEAD. ) ;
#98 = DIRECTION ( 'NONE',  ( -3.491481338843133355E-15, 1.229791517316362731E-16, -1.000000000000000000 ) ) ;
#99 =( NAMED_UNIT ( * ) SI_UNIT ( $, .STERADIAN. ) SOLID_ANGLE_UNIT ( ) );
#100 = APPROVAL_STATUS ( 'not_yet_approved' ) ;
#101 = PERSON_AND_ORGANIZATION ( #216, #63 ) ;
#102 = CARTESIAN_POINT ( 'NONE',  ( 2.478951750578624367E-14, 0.4549999999999986278, 7.099999999999999645 ) ) ;
#103 = APPROVAL_STATUS ( 'not_yet_approved' ) ;
#104 = ORIENTED_EDGE ( 'NONE', *, *, #112, .T. ) ;
#105 = EDGE_LOOP ( 'NONE', ( #147 ) ) ;
#106 = DATE_AND_TIME ( #120, #66 ) ;
#107 = ADVANCED_FACE ( 'NONE', ( #142, #177 ), #151, .T. ) ;
#108 = DIRECTION ( 'NONE',  ( -3.491481338843133355E-15, 1.224646799147353207E-16, -1.000000000000000000 ) ) ;
#109 = DIRECTION ( 'NONE',  ( -4.275831445896958607E-31, -1.000000000000000000, -1.224646799147353207E-16 ) ) ;
#110 = DIRECTION ( 'NONE',  ( 4.293794133377662246E-31, 1.000000000000000000, 1.229791517316362484E-16 ) ) ;
#111 = CARTESIAN_POINT ( 'NONE',  ( 0.0000000000000000000, 0.0000000000000000000, 0.0000000000000000000 ) ) ;
#112 = EDGE_CURVE ( 'NONE', #1, #1, #51, .T. ) ;
#113 = AXIS2_PLACEMENT_3D ( 'NONE', #72, #77, #212 ) ;
#114 = LOCAL_TIME ( 11, 22, 37.00000000000000000, #9 ) ;
#115 = APPLICATION_PROTOCOL_DEFINITION ( 'international standard', 'config_control_design', 1994, #146 ) ;
#116 = APPLICATION_CONTEXT ( 'configuration controlled 3d designs of mechanical parts and assemblies' ) ;
#117 = DATE_TIME_ROLE ( 'classification_date' ) ;
#118 = AXIS2_PLACEMENT_3D ( 'NONE', #56, #73, #110 ) ;
#119 = CC_DESIGN_DATE_AND_TIME_ASSIGNMENT ( #76, #117, ( #124 ) ) ;
#120 = CALENDAR_DATE ( 2021, 28, 10 ) ;
#121 = ORIENTED_EDGE ( 'NONE', *, *, #112, .F. ) ;
#122 = COORDINATED_UNIVERSAL_TIME_OFFSET ( 1, 0, .AHEAD. ) ;
#123 = AXIS2_PLACEMENT_3D ( 'NONE', #26, #41, #109 ) ;
#124 = SECURITY_CLASSIFICATION ( '', '', #155 ) ;
#125 = APPROVAL ( #164, 'UNSPECIFIED' ) ;
#126 = DIRECTION ( 'NONE',  ( 0.0000000000000000000, 1.000000000000000000, 0.0000000000000000000 ) ) ;
#127 = CIRCLE ( 'NONE', #189, 1.199999999999999956 ) ;
#128 = FACE_OUTER_BOUND ( 'NONE', #136, .T. ) ;
#129 = FACE_OUTER_BOUND ( 'NONE', #134, .T. ) ;
#130 = DIRECTION ( 'NONE',  ( -4.275831445896958607E-31, -1.000000000000000000, -1.224646799147353207E-16 ) ) ;
#131 = CC_DESIGN_APPROVAL ( #14, ( #58 ) ) ;
#132 = DIRECTION ( 'NONE',  ( 4.275831445896958607E-31, 1.000000000000000000, 1.224646799147353207E-16 ) ) ;
#133 = EDGE_CURVE ( 'NONE', #181, #181, #95, .T. ) ;
#134 = EDGE_LOOP ( 'NONE', ( #135 ) ) ;
#135 = ORIENTED_EDGE ( 'NONE', *, *, #23, .F. ) ;
#136 = EDGE_LOOP ( 'NONE', ( #37 ) ) ;
#137 = FACE_OUTER_BOUND ( 'NONE', #67, .T. ) ;
#138 = FACE_OUTER_BOUND ( 'NONE', #222, .T. ) ;
#139 = AXIS2_PLACEMENT_3D ( 'NONE', #193, #194, #126 ) ;
#140 = DIRECTION ( 'NONE',  ( 0.0000000000000000000, 1.000000000000000000, 0.0000000000000000000 ) ) ;
#141 = PERSON_AND_ORGANIZATION_ROLE ( 'classification_officer' ) ;
#142 = FACE_OUTER_BOUND ( 'NONE', #206, .T. ) ;
#143 = DIRECTION ( 'NONE',  ( -5.135813185032644414E-31, -1.000000000000000000, -1.445602896647343601E-16 ) ) ;
#144 = ADVANCED_FACE ( 'NONE', ( #21 ), #55, .F. ) ;
#145 = CONICAL_SURFACE ( 'NONE', #16, 1.499999999999998446, 0.2617993877991500740 ) ;
#146 = APPLICATION_CONTEXT ( 'configuration controlled 3d designs of mechanical parts and assemblies' ) ;
#147 = ORIENTED_EDGE ( 'NONE', *, *, #75, .F. ) ;
#148 = ORIENTED_EDGE ( 'NONE', *, *, #23, .T. ) ;
#149 = PRODUCT_DEFINITION_SHAPE ( 'NONE', 'NONE',  #58 ) ;
#150 = MANIFOLD_SOLID_BREP ( 'Corps-Déplacer/Copier1[2]', #205 ) ;
#151 = CONICAL_SURFACE ( 'NONE', #139, 1.199999999999999956, 0.7853981633974453924 ) ;
#152 = ORIENTED_EDGE ( 'NONE', *, *, #161, .F. ) ;
#153 = FACE_BOUND ( 'NONE', #187, .T. ) ;
#154 = CARTESIAN_POINT ( 'NONE',  ( 2.478951750578624367E-14, -8.731519772946173392E-16, 7.099999999999999645 ) ) ;
#155 = SECURITY_CLASSIFICATION_LEVEL ( 'unclassified' ) ;
#156 = FACE_OUTER_BOUND ( 'NONE', #50, .T. ) ;
#157 = CALENDAR_DATE ( 2021, 28, 10 ) ;
#158 = FACE_OUTER_BOUND ( 'NONE', #105, .T. ) ;
#159 = APPROVAL_ROLE ( '' ) ;
#160 = PERSON_AND_ORGANIZATION_ROLE ( 'creator' ) ;
#161 = EDGE_CURVE ( 'NONE', #198, #198, #30, .T. ) ;
#162 = CARTESIAN_POINT ( 'NONE',  ( 0.0000000000000000000, 0.0000000000000000000, 0.0000000000000000000 ) ) ;
#163 = ADVANCED_FACE ( 'NONE', ( #153, #156 ), #145, .T. ) ;
#164 = APPROVAL_STATUS ( 'not_yet_approved' ) ;
#165 = AXIS2_PLACEMENT_3D ( 'NONE', #208, #54, #210 ) ;
#166 = UNCERTAINTY_MEASURE_WITH_UNIT (LENGTH_MEASURE( 1.000000000000000082E-05 ), #182, 'distance_accuracy_value', 'NONE');
#167 = ORIENTED_EDGE ( 'NONE', *, *, #133, .T. ) ;
#168 = PLANE ( 'NONE',  #69 ) ;
#169 = CALENDAR_DATE ( 2021, 28, 10 ) ;
#170 = PERSON_AND_ORGANIZATION_ROLE ( 'creator' ) ;
#171 = CONICAL_SURFACE ( 'NONE', #78, 1.499999999999995559, 1.221730476396026388 ) ;
#172 = CC_DESIGN_SECURITY_CLASSIFICATION ( #124, ( #36 ) ) ;
#173 = LOCAL_TIME ( 11, 22, 37.00000000000000000, #97 ) ;
#174 = DATE_TIME_ROLE ( 'creation_date' ) ;
#175 = DIRECTION ( 'NONE',  ( 0.0000000000000000000, 1.000000000000000000, 0.0000000000000000000 ) ) ;
#176 = DIRECTION ( 'NONE',  ( 3.491481338843133355E-15, -1.224646799147353207E-16, 1.000000000000000000 ) ) ;
#177 = FACE_BOUND ( 'NONE', #185, .T. ) ;
#178 = AXIS2_PLACEMENT_3D ( 'NONE', #96, #98, #140 ) ;
#179 = ADVANCED_FACE ( 'NONE', ( #128 ), #171, .T. ) ;
#180 = DIRECTION ( 'NONE',  ( -3.491481338843133355E-15, 1.229791517316362731E-16, -1.000000000000000000 ) ) ;
#181 = VERTEX_POINT ( 'NONE', #102 ) ;
#182 =( LENGTH_UNIT ( ) NAMED_UNIT ( * ) SI_UNIT ( .MILLI., .METRE. ) );
#183 = SHAPE_DEFINITION_REPRESENTATION ( #149, #65 ) ;
#184 =( GEOMETRIC_REPRESENTATION_CONTEXT ( 3 ) GLOBAL_UNCERTAINTY_ASSIGNED_CONTEXT ( ( #166 ) ) GLOBAL_UNIT_ASSIGNED_CONTEXT ( ( #182, #29, #99 ) ) REPRESENTATION_CONTEXT ( 'NONE', 'WORKASPACE' ) );
#185 = EDGE_LOOP ( 'NONE', ( #148 ) ) ;
#186 = APPROVAL_PERSON_ORGANIZATION ( #53, #46, #64 ) ;
#187 = EDGE_LOOP ( 'NONE', ( #152 ) ) ;
#188 = CC_DESIGN_PERSON_AND_ORGANIZATION_ASSIGNMENT ( #28, #141, ( #124 ) ) ;
#189 = AXIS2_PLACEMENT_3D ( 'NONE', #74, #42, #40 ) ;
#190 = LOCAL_TIME ( 11, 22, 37.00000000000000000, #122 ) ;
#191 = PLANE ( 'NONE',  #24 ) ;
#192 = FACE_OUTER_BOUND ( 'NONE', #35, .T. ) ;
#193 = CARTESIAN_POINT ( 'NONE',  ( 1.326762908760390423E-13, -4.653657836759941941E-15, 38.00000000000000000 ) ) ;
#194 = DIRECTION ( 'NONE',  ( -3.491481338843133355E-15, 1.224646799147353207E-16, -1.000000000000000000 ) ) ;
#195 = CARTESIAN_POINT ( 'NONE',  ( 3.840627061478823253E-14, 1.499999999999997113, 10.99999309390946323 ) ) ;
#196 = PERSON_AND_ORGANIZATION_ROLE ( 'design_owner' ) ;
#197 = CARTESIAN_POINT ( 'NONE',  ( 2.478951750578624367E-14, 0.4549999999999986278, 7.099999999999999645 ) ) ;
#198 = VERTEX_POINT ( 'NONE', #197 ) ;
#199 = PERSON_AND_ORGANIZATION ( #216, #63 ) ;
#200 = CC_DESIGN_PERSON_AND_ORGANIZATION_ASSIGNMENT ( #20, #170, ( #36 ) ) ;
#201 = CC_DESIGN_PERSON_AND_ORGANIZATION_ASSIGNMENT ( #101, #160, ( #58 ) ) ;
#202 = CARTESIAN_POINT ( 'NONE',  ( 1.316288464743861212E-13, 1.499999999999995337, 37.69999999999999574 ) ) ;
#203 = COORDINATED_UNIVERSAL_TIME_OFFSET ( 1, 0, .AHEAD. ) ;
#204 = EDGE_LOOP ( 'NONE', ( #88 ) ) ;
#205 = CLOSED_SHELL ( 'NONE', ( #10, #52, #179 ) ) ;
#206 = EDGE_LOOP ( 'NONE', ( #121 ) ) ;
#207 = PERSON_AND_ORGANIZATION ( #216, #63 ) ;
#208 = CARTESIAN_POINT ( 'NONE',  ( 3.840627061478823253E-14, -1.352769819742843102E-15, 10.99999309390946323 ) ) ;
#209 = AXIS2_PLACEMENT_3D ( 'NONE', #111, #22, #6 ) ;
#210 = DIRECTION ( 'NONE',  ( 0.0000000000000000000, 1.000000000000000000, 0.0000000000000000000 ) ) ;
#211 = VERTEX_POINT ( 'NONE', #5 ) ;
#212 = DIRECTION ( 'NONE',  ( -4.232813064587336213E-31, -1.000000000000000000, -1.191430958775280912E-16 ) ) ;
#213 = VERTEX_POINT ( 'NONE', #195 ) ;
#214 = CIRCLE ( 'NONE', #165, 1.499999999999998446 ) ;
#215 = APPROVAL_DATE_TIME ( #219, #125 ) ;
#216 = PERSON ( 'UNSPECIFIED', 'UNSPECIFIED', 'UNSPECIFIED', ('UNSPECIFIED'), ('UNSPECIFIED'), ('UNSPECIFIED') ) ;
#217 = AXIS2_PLACEMENT_3D ( 'NONE', #154, #180, #175 ) ;
#218 = PERSON_AND_ORGANIZATION ( #216, #63 ) ;
#219 = DATE_AND_TIME ( #11, #190 ) ;
#220 = EDGE_LOOP ( 'NONE', ( #15 ) ) ;
#221 = CLOSED_SHELL ( 'NONE', ( #62, #107, #84, #163, #144 ) ) ;
#222 = EDGE_LOOP ( 'NONE', ( #47 ) ) ;
#223 = ORIENTED_EDGE ( 'NONE', *, *, #75, .T. ) ;
ENDSEC;
END-ISO-10303-21;
