ISO-10303-21;
HEADER;
FILE_DESCRIPTION (( 'STEP AP203' ),
    '1' );
FILE_NAME ('962870.step',
    '2021-10-28T09:22:36',
    ( '' ),
    ( '' ),
    'SwSTEP 2.0',
    'SolidWorks 2019',
    '' );
FILE_SCHEMA (( 'CONFIG_CONTROL_DESIGN' ));
ENDSEC;

DATA;
#1 = VERTEX_POINT ( 'NONE', #189 ) ;
#2 = APPROVAL ( #192, 'UNSPECIFIED' ) ;
#3 = VERTEX_POINT ( 'NONE', #147 ) ;
#4 = ORIENTED_EDGE ( 'NONE', *, *, #64, .F. ) ;
#5 = SHAPE_DEFINITION_REPRESENTATION ( #87, #53 ) ;
#6 = AXIS2_PLACEMENT_3D ( 'NONE', #41, #128, #28 ) ;
#7 = CALENDAR_DATE ( 2021, 28, 10 ) ;
#8 = PERSON_AND_ORGANIZATION_ROLE ( 'design_supplier' ) ;
#9 = CLOSED_SHELL ( 'NONE', ( #169, #171, #67, #116, #134 ) ) ;
#10 = DIRECTION ( 'NONE',  ( -3.491481338843133355E-15, 1.229791517316362731E-16, -1.000000000000000000 ) ) ;
#11 = DIRECTION ( 'NONE',  ( -3.491481338843133355E-15, 1.229791517316362731E-16, -1.000000000000000000 ) ) ;
#12 = CIRCLE ( 'NONE', #173, 1.499999999999998446 ) ;
#13 = CARTESIAN_POINT ( 'NONE',  ( 1.326762908760390423E-13, 1.199999999999995293, 38.00000000000000000 ) ) ;
#14 = CC_DESIGN_PERSON_AND_ORGANIZATION_ASSIGNMENT ( #155, #198, ( #33 ) ) ;
#15 = AXIS2_PLACEMENT_3D ( 'NONE', #22, #118, #195 ) ;
#16 = DATE_TIME_ROLE ( 'creation_date' ) ;
#17 = APPROVAL_DATE_TIME ( #34, #145 ) ;
#18 = EDGE_LOOP ( 'NONE', ( #61 ) ) ;
#19 = CARTESIAN_POINT ( 'NONE',  ( 2.478951750578624367E-14, 0.4499999999999986233, 7.099999999999999645 ) ) ;
#20 = ORGANIZATION ( 'UNSPECIFIED', 'UNSPECIFIED', '' ) ;
#21 = COORDINATED_UNIVERSAL_TIME_OFFSET ( 1, 0, .AHEAD. ) ;
#22 = CARTESIAN_POINT ( 'NONE',  ( 1.326762908760390423E-13, 8.998558695971077224E-33, 38.00000000000000000 ) ) ;
#23 = AXIS2_PLACEMENT_3D ( 'NONE', #161, #10, #139 ) ;
#24 = DIRECTION ( 'NONE',  ( -3.491481338843133355E-15, 1.224646799147353207E-16, -1.000000000000000000 ) ) ;
#25 = DATE_AND_TIME ( #7, #175 ) ;
#26 = CONICAL_SURFACE ( 'NONE', #99, 1.199999999999999956, 0.7853981633974453924 ) ;
#27 = CC_DESIGN_APPROVAL ( #145, ( #167 ) ) ;
#28 = DIRECTION ( 'NONE',  ( -5.135813185032644414E-31, -1.000000000000000000, -1.445602896647343601E-16 ) ) ;
#29 = CARTESIAN_POINT ( 'NONE',  ( 2.478951750578624367E-14, -8.731519772946173392E-16, 7.099999999999999645 ) ) ;
#30 = DIRECTION ( 'NONE',  ( 0.0000000000000000000, 1.000000000000000000, 0.0000000000000000000 ) ) ;
#31 = DIRECTION ( 'NONE',  ( 1.000000000000000000, 0.0000000000000000000, 0.0000000000000000000 ) ) ;
#32 = CALENDAR_DATE ( 2021, 28, 10 ) ;
#33 = SECURITY_CLASSIFICATION ( '', '', #156 ) ;
#34 = DATE_AND_TIME ( #66, #217 ) ;
#35 = DESIGN_CONTEXT ( 'detailed design', #196, 'design' ) ;
#36 = COORDINATED_UNIVERSAL_TIME_OFFSET ( 1, 0, .AHEAD. ) ;
#37 = CARTESIAN_POINT ( 'NONE',  ( 1.316288464743861212E-13, 1.499999999999995337, 37.69999999999999574 ) ) ;
#38 = PLANE ( 'NONE',  #15 ) ;
#39 = CARTESIAN_POINT ( 'NONE',  ( 2.478951750578624367E-14, 1.124819836996389237E-32, 7.099999999999999645 ) ) ;
#40 = CIRCLE ( 'NONE', #186, 0.4499999999999995115 ) ;
#41 = CARTESIAN_POINT ( 'NONE',  ( 1.906192921252232855E-15, -6.686024735685322183E-17, 0.5459553513993090634 ) ) ;
#42 = CC_DESIGN_PERSON_AND_ORGANIZATION_ASSIGNMENT ( #54, #8, ( #167 ) ) ;
#43 = CARTESIAN_POINT ( 'NONE',  ( 2.478951750578624367E-14, 1.124819836996389237E-32, 7.099999999999999645 ) ) ;
#44 = FACE_OUTER_BOUND ( 'NONE', #18, .T. ) ;
#45 = CARTESIAN_POINT ( 'NONE',  ( 0.0000000000000000000, 0.0000000000000000000, 0.0000000000000000000 ) ) ;
#46 = EDGE_LOOP ( 'NONE', ( #127 ) ) ;
#47 = COORDINATED_UNIVERSAL_TIME_OFFSET ( 1, 0, .AHEAD. ) ;
#48 = CIRCLE ( 'NONE', #153, 0.4499999999999995115 ) ;
#49 = LOCAL_TIME ( 11, 22, 36.00000000000000000, #21 ) ;
#50 = APPROVAL_STATUS ( 'not_yet_approved' ) ;
#51 = VERTEX_POINT ( 'NONE', #206 ) ;
#52 = AXIS2_PLACEMENT_3D ( 'NONE', #45, #141, #181 ) ;
#53 = ADVANCED_BREP_SHAPE_REPRESENTATION ( '962870', ( #57, #212, #112 ), #76 ) ;
#54 = PERSON_AND_ORGANIZATION ( #191, #20 ) ;
#55 = ORIENTED_EDGE ( 'NONE', *, *, #94, .F. ) ;
#56 = DIRECTION ( 'NONE',  ( 0.0000000000000000000, 1.000000000000000000, 0.0000000000000000000 ) ) ;
#57 = MANIFOLD_SOLID_BREP ( 'Corps-Déplacer/Copier1[1]', #9 ) ;
#58 = CONICAL_SURFACE ( 'NONE', #190, 1.499999999999998446, 0.2617993877991501295 ) ;
#59 = DIRECTION ( 'NONE',  ( -3.491481338843133355E-15, 1.224646799147353207E-16, -1.000000000000000000 ) ) ;
#60 = DIRECTION ( 'NONE',  ( -4.275831445896958607E-31, -1.000000000000000000, -1.224646799147353207E-16 ) ) ;
#61 = ORIENTED_EDGE ( 'NONE', *, *, #110, .T. ) ;
#62 = EDGE_LOOP ( 'NONE', ( #78 ) ) ;
#63 = FACE_OUTER_BOUND ( 'NONE', #211, .T. ) ;
#64 = EDGE_CURVE ( 'NONE', #130, #130, #40, .T. ) ;
#65 = APPROVAL_ROLE ( '' ) ;
#66 = CALENDAR_DATE ( 2021, 28, 10 ) ;
#67 = ADVANCED_FACE ( 'NONE', ( #88 ), #38, .F. ) ;
#68 = CONICAL_SURFACE ( 'NONE', #6, 1.499999999999995559, 1.221730476396026388 ) ;
#69 = PERSON_AND_ORGANIZATION ( #191, #20 ) ;
#70 = APPROVAL_PERSON_ORGANIZATION ( #69, #2, #213 ) ;
#71 = APPROVAL_PERSON_ORGANIZATION ( #222, #77, #65 ) ;
#72 = DIRECTION ( 'NONE',  ( -3.491481338843133355E-15, 1.229791517316362731E-16, -1.000000000000000000 ) ) ;
#73 = DIRECTION ( 'NONE',  ( -3.491481338843133355E-15, 1.224646799147353207E-16, -1.000000000000000000 ) ) ;
#74 = CYLINDRICAL_SURFACE ( 'NONE', #52, 1.499999999999998002 ) ;
#75 = EDGE_LOOP ( 'NONE', ( #101 ) ) ;
#76 =( GEOMETRIC_REPRESENTATION_CONTEXT ( 3 ) GLOBAL_UNCERTAINTY_ASSIGNED_CONTEXT ( ( #81 ) ) GLOBAL_UNIT_ASSIGNED_CONTEXT ( ( #104, #133, #185 ) ) REPRESENTATION_CONTEXT ( 'NONE', 'WORKASPACE' ) );
#77 = APPROVAL ( #50, 'UNSPECIFIED' ) ;
#78 = ORIENTED_EDGE ( 'NONE', *, *, #135, .T. ) ;
#79 = MECHANICAL_CONTEXT ( 'NONE', #142, 'mechanical' ) ;
#80 = PERSON_AND_ORGANIZATION_ROLE ( 'design_owner' ) ;
#81 = UNCERTAINTY_MEASURE_WITH_UNIT (LENGTH_MEASURE( 1.000000000000000082E-05 ), #104, 'distance_accuracy_value', 'NONE');
#82 = PERSON_AND_ORGANIZATION ( #191, #20 ) ;
#83 = CC_DESIGN_PERSON_AND_ORGANIZATION_ASSIGNMENT ( #120, #138, ( #167 ) ) ;
#84 = APPLICATION_PROTOCOL_DEFINITION ( 'international standard', 'config_control_design', 1994, #142 ) ;
#85 = EDGE_LOOP ( 'NONE', ( #4 ) ) ;
#86 = DATE_TIME_ROLE ( 'classification_date' ) ;
#87 = PRODUCT_DEFINITION_SHAPE ( 'NONE', 'NONE',  #90 ) ;
#88 = FACE_OUTER_BOUND ( 'NONE', #149, .T. ) ;
#89 = CIRCLE ( 'NONE', #214, 1.199999999999999956 ) ;
#90 = PRODUCT_DEFINITION ( 'UNKNOWN', '', #167, #35 ) ;
#91 = DIRECTION ( 'NONE',  ( -4.279844320860528400E-31, -1.000000000000000000, -1.204669080539450576E-16 ) ) ;
#92 = DATE_AND_TIME ( #159, #49 ) ;
#93 = FACE_OUTER_BOUND ( 'NONE', #119, .T. ) ;
#94 = EDGE_CURVE ( 'NONE', #51, #51, #157, .T. ) ;
#95 = AXIS2_PLACEMENT_3D ( 'NONE', #105, #24, #91 ) ;
#96 = LOCAL_TIME ( 11, 22, 36.00000000000000000, #47 ) ;
#97 = FACE_OUTER_BOUND ( 'NONE', #75, .T. ) ;
#98 = CARTESIAN_POINT ( 'NONE',  ( 1.326762908760390423E-13, -4.653657836759941941E-15, 38.00000000000000000 ) ) ;
#99 = AXIS2_PLACEMENT_3D ( 'NONE', #98, #59, #220 ) ;
#100 = CALENDAR_DATE ( 2021, 28, 10 ) ;
#101 = ORIENTED_EDGE ( 'NONE', *, *, #110, .F. ) ;
#102 = PERSON_AND_ORGANIZATION ( #191, #20 ) ;
#103 = LOCAL_TIME ( 11, 22, 36.00000000000000000, #36 ) ;
#104 =( LENGTH_UNIT ( ) NAMED_UNIT ( * ) SI_UNIT ( .MILLI., .METRE. ) );
#105 = CARTESIAN_POINT ( 'NONE',  ( 5.718578763756706455E-16, -2.005807420705599182E-17, 0.1637866054197929244 ) ) ;
#106 = ADVANCED_FACE ( 'NONE', ( #122 ), #68, .T. ) ;
#107 = CARTESIAN_POINT ( 'NONE',  ( 3.847142254353943449E-14, -1.355064641955513734E-15, 11.01865334794730700 ) ) ;
#108 = ORIENTED_EDGE ( 'NONE', *, *, #143, .F. ) ;
#109 = DIRECTION ( 'NONE',  ( 3.491481338843133355E-15, -1.224646799147353207E-16, 1.000000000000000000 ) ) ;
#110 = EDGE_CURVE ( 'NONE', #154, #154, #148, .T. ) ;
#111 = DIRECTION ( 'NONE',  ( 3.491481338843133355E-15, -1.224646799147353207E-16, 1.000000000000000000 ) ) ;
#112 = AXIS2_PLACEMENT_3D ( 'NONE', #184, #117, #31 ) ;
#113 = ORIENTED_EDGE ( 'NONE', *, *, #64, .T. ) ;
#114 = DIRECTION ( 'NONE',  ( -3.491481338843133355E-15, 1.229791517316362731E-16, -1.000000000000000000 ) ) ;
#115 = CC_DESIGN_SECURITY_CLASSIFICATION ( #33, ( #167 ) ) ;
#116 = ADVANCED_FACE ( 'NONE', ( #216, #146 ), #58, .T. ) ;
#117 = DIRECTION ( 'NONE',  ( 0.0000000000000000000, 0.0000000000000000000, 1.000000000000000000 ) ) ;
#118 = DIRECTION ( 'NONE',  ( -3.491481338843133355E-15, 1.224646799147353207E-16, -1.000000000000000000 ) ) ;
#119 = EDGE_LOOP ( 'NONE', ( #208 ) ) ;
#120 = PERSON_AND_ORGANIZATION ( #191, #20 ) ;
#121 = PRODUCT ( '962870', '962870', '', ( #79 ) ) ;
#122 = FACE_OUTER_BOUND ( 'NONE', #210, .T. ) ;
#123 = CARTESIAN_POINT ( 'NONE',  ( 3.847142254353943449E-14, -1.355064641955513734E-15, 11.01865334794730700 ) ) ;
#124 = FACE_OUTER_BOUND ( 'NONE', #209, .T. ) ;
#125 = ORIENTED_EDGE ( 'NONE', *, *, #94, .T. ) ;
#126 = CARTESIAN_POINT ( 'NONE',  ( 1.326762908760390423E-13, -4.653657836759941941E-15, 38.00000000000000000 ) ) ;
#127 = ORIENTED_EDGE ( 'NONE', *, *, #143, .T. ) ;
#128 = DIRECTION ( 'NONE',  ( 3.491481338843133355E-15, -1.224646799147353207E-16, 1.000000000000000000 ) ) ;
#129 = DATE_AND_TIME ( #32, #103 ) ;
#130 = VERTEX_POINT ( 'NONE', #19 ) ;
#131 = AXIS2_PLACEMENT_3D ( 'NONE', #43, #109, #180 ) ;
#132 = VERTEX_POINT ( 'NONE', #13 ) ;
#133 =( NAMED_UNIT ( * ) PLANE_ANGLE_UNIT ( ) SI_UNIT ( $, .RADIAN. ) );
#134 = ADVANCED_FACE ( 'NONE', ( #218 ), #200, .F. ) ;
#135 = EDGE_CURVE ( 'NONE', #132, #132, #89, .T. ) ;
#136 = AXIS2_PLACEMENT_3D ( 'NONE', #39, #111, #60 ) ;
#137 = CC_DESIGN_APPROVAL ( #2, ( #33 ) ) ;
#138 = PERSON_AND_ORGANIZATION_ROLE ( 'creator' ) ;
#139 = DIRECTION ( 'NONE',  ( 4.293794133377662246E-31, 1.000000000000000000, 1.229791517316362731E-16 ) ) ;
#140 = DIRECTION ( 'NONE',  ( 0.0000000000000000000, -1.000000000000000000, 0.0000000000000000000 ) ) ;
#141 = DIRECTION ( 'NONE',  ( -3.491481338843133355E-15, 1.224646799147353207E-16, -1.000000000000000000 ) ) ;
#142 = APPLICATION_CONTEXT ( 'configuration controlled 3d designs of mechanical parts and assemblies' ) ;
#143 = EDGE_CURVE ( 'NONE', #1, #1, #12, .T. ) ;
#144 = CARTESIAN_POINT ( 'NONE',  ( 1.316288464743861212E-13, -4.616918432785521081E-15, 37.69999999999999574 ) ) ;
#145 = APPROVAL ( #172, 'UNSPECIFIED' ) ;
#146 = FACE_OUTER_BOUND ( 'NONE', #46, .T. ) ;
#147 = CARTESIAN_POINT ( 'NONE',  ( 2.478951750578624367E-14, 0.4499999999999986233, 7.099999999999999645 ) ) ;
#148 = CIRCLE ( 'NONE', #166, 1.499999999999999778 ) ;
#149 = EDGE_LOOP ( 'NONE', ( #215 ) ) ;
#150 = APPLICATION_PROTOCOL_DEFINITION ( 'international standard', 'config_control_design', 1994, #196 ) ;
#151 = APPROVAL_ROLE ( '' ) ;
#152 = CC_DESIGN_PERSON_AND_ORGANIZATION_ASSIGNMENT ( #170, #80, ( #121 ) ) ;
#153 = AXIS2_PLACEMENT_3D ( 'NONE', #29, #114, #165 ) ;
#154 = VERTEX_POINT ( 'NONE', #37 ) ;
#155 = PERSON_AND_ORGANIZATION ( #191, #20 ) ;
#156 = SECURITY_CLASSIFICATION_LEVEL ( 'unclassified' ) ;
#157 = CIRCLE ( 'NONE', #95, 0.4499999999999995115 ) ;
#158 = APPROVAL_DATE_TIME ( #92, #2 ) ;
#159 = CALENDAR_DATE ( 2021, 28, 10 ) ;
#160 = CC_DESIGN_APPROVAL ( #77, ( #90 ) ) ;
#161 = CARTESIAN_POINT ( 'NONE',  ( 0.0000000000000000000, 0.0000000000000000000, 0.0000000000000000000 ) ) ;
#162 = EDGE_LOOP ( 'NONE', ( #113 ) ) ;
#163 = FACE_BOUND ( 'NONE', #62, .T. ) ;
#164 = CYLINDRICAL_SURFACE ( 'NONE', #23, 0.4499999999999995115 ) ;
#165 = DIRECTION ( 'NONE',  ( 0.0000000000000000000, 1.000000000000000000, 0.0000000000000000000 ) ) ;
#166 = AXIS2_PLACEMENT_3D ( 'NONE', #144, #73, #30 ) ;
#167 = PRODUCT_DEFINITION_FORMATION_WITH_SPECIFIED_SOURCE ( 'ANY', '', #121, .NOT_KNOWN. ) ;
#168 = DATE_AND_TIME ( #100, #96 ) ;
#169 = ADVANCED_FACE ( 'NONE', ( #202, #44 ), #74, .T. ) ;
#170 = PERSON_AND_ORGANIZATION ( #191, #20 ) ;
#171 = ADVANCED_FACE ( 'NONE', ( #97, #163 ), #26, .T. ) ;
#172 = APPROVAL_STATUS ( 'not_yet_approved' ) ;
#173 = AXIS2_PLACEMENT_3D ( 'NONE', #107, #11, #56 ) ;
#174 = APPROVAL_PERSON_ORGANIZATION ( #82, #145, #151 ) ;
#175 = LOCAL_TIME ( 11, 22, 36.00000000000000000, #194 ) ;
#176 = CARTESIAN_POINT ( 'NONE',  ( 2.478951750578624367E-14, -8.731519772946173392E-16, 7.099999999999999645 ) ) ;
#177 = CC_DESIGN_DATE_AND_TIME_ASSIGNMENT ( #168, #16, ( #90 ) ) ;
#178 = DIRECTION ( 'NONE',  ( -3.491481338843133355E-15, 1.224646799147353207E-16, -1.000000000000000000 ) ) ;
#179 = ORIENTED_EDGE ( 'NONE', *, *, #207, .F. ) ;
#180 = DIRECTION ( 'NONE',  ( -4.275831445896958607E-31, -1.000000000000000000, -1.224646799147353207E-16 ) ) ;
#181 = DIRECTION ( 'NONE',  ( 4.275831445896959482E-31, 1.000000000000000000, 1.224646799147353207E-16 ) ) ;
#182 = PRODUCT_RELATED_PRODUCT_CATEGORY ( 'detail', '', ( #121 ) ) ;
#183 = DIRECTION ( 'NONE',  ( 3.491481338843133355E-15, -1.229791517316362731E-16, 1.000000000000000000 ) ) ;
#184 = CARTESIAN_POINT ( 'NONE',  ( 0.0000000000000000000, 0.0000000000000000000, 0.0000000000000000000 ) ) ;
#185 =( NAMED_UNIT ( * ) SI_UNIT ( $, .STERADIAN. ) SOLID_ANGLE_UNIT ( ) );
#186 = AXIS2_PLACEMENT_3D ( 'NONE', #176, #72, #193 ) ;
#187 = APPROVAL_DATE_TIME ( #129, #77 ) ;
#188 = ADVANCED_FACE ( 'NONE', ( #93, #63 ), #164, .T. ) ;
#189 = CARTESIAN_POINT ( 'NONE',  ( 3.847142254353943449E-14, 1.499999999999997113, 11.01865334794730700 ) ) ;
#190 = AXIS2_PLACEMENT_3D ( 'NONE', #123, #183, #140 ) ;
#191 = PERSON ( 'UNSPECIFIED', 'UNSPECIFIED', 'UNSPECIFIED', ('UNSPECIFIED'), ('UNSPECIFIED'), ('UNSPECIFIED') ) ;
#192 = APPROVAL_STATUS ( 'not_yet_approved' ) ;
#193 = DIRECTION ( 'NONE',  ( 0.0000000000000000000, 1.000000000000000000, 0.0000000000000000000 ) ) ;
#194 = COORDINATED_UNIVERSAL_TIME_OFFSET ( 1, 0, .AHEAD. ) ;
#195 = DIRECTION ( 'NONE',  ( 4.275831445896958607E-31, 1.000000000000000000, 1.224646799147353207E-16 ) ) ;
#196 = APPLICATION_CONTEXT ( 'configuration controlled 3d designs of mechanical parts and assemblies' ) ;
#197 = CLOSED_SHELL ( 'NONE', ( #199, #188, #106 ) ) ;
#198 = PERSON_AND_ORGANIZATION_ROLE ( 'classification_officer' ) ;
#199 = ADVANCED_FACE ( 'NONE', ( #124 ), #201, .T. ) ;
#200 = PLANE ( 'NONE',  #136 ) ;
#201 = PLANE ( 'NONE',  #131 ) ;
#202 = FACE_OUTER_BOUND ( 'NONE', #219, .T. ) ;
#203 = CC_DESIGN_DATE_AND_TIME_ASSIGNMENT ( #25, #86, ( #33 ) ) ;
#204 = DIRECTION ( 'NONE',  ( 0.0000000000000000000, 1.000000000000000000, 0.0000000000000000000 ) ) ;
#205 = PERSON_AND_ORGANIZATION_ROLE ( 'creator' ) ;
#206 = CARTESIAN_POINT ( 'NONE',  ( 5.718578763756704483E-16, -0.4499999999999995115, 0.1637866054197928689 ) ) ;
#207 = EDGE_CURVE ( 'NONE', #3, #3, #48, .T. ) ;
#208 = ORIENTED_EDGE ( 'NONE', *, *, #207, .T. ) ;
#209 = EDGE_LOOP ( 'NONE', ( #179 ) ) ;
#210 = EDGE_LOOP ( 'NONE', ( #125 ) ) ;
#211 = EDGE_LOOP ( 'NONE', ( #55 ) ) ;
#212 = MANIFOLD_SOLID_BREP ( 'Corps-Déplacer/Copier1[2]', #197 ) ;
#213 = APPROVAL_ROLE ( '' ) ;
#214 = AXIS2_PLACEMENT_3D ( 'NONE', #126, #178, #204 ) ;
#215 = ORIENTED_EDGE ( 'NONE', *, *, #135, .F. ) ;
#216 = FACE_BOUND ( 'NONE', #85, .T. ) ;
#217 = LOCAL_TIME ( 11, 22, 36.00000000000000000, #223 ) ;
#218 = FACE_OUTER_BOUND ( 'NONE', #162, .T. ) ;
#219 = EDGE_LOOP ( 'NONE', ( #108 ) ) ;
#220 = DIRECTION ( 'NONE',  ( 0.0000000000000000000, 1.000000000000000000, 0.0000000000000000000 ) ) ;
#221 = CC_DESIGN_PERSON_AND_ORGANIZATION_ASSIGNMENT ( #102, #205, ( #90 ) ) ;
#222 = PERSON_AND_ORGANIZATION ( #191, #20 ) ;
#223 = COORDINATED_UNIVERSAL_TIME_OFFSET ( 1, 0, .AHEAD. ) ;
ENDSEC;
END-ISO-10303-21;
