ISO-10303-21;
HEADER;
FILE_DESCRIPTION (( 'STEP AP203' ),
    '1' );
FILE_NAME ('962868.step',
    '2021-10-28T09:22:35',
    ( '' ),
    ( '' ),
    'SwSTEP 2.0',
    'SolidWorks 2019',
    '' );
FILE_SCHEMA (( 'CONFIG_CONTROL_DESIGN' ));
ENDSEC;

DATA;
#1 = CALENDAR_DATE ( 2021, 28, 10 ) ;
#2 = COORDINATED_UNIVERSAL_TIME_OFFSET ( 1, 0, .AHEAD. ) ;
#3 = DIRECTION ( 'NONE',  ( 1.000000000000000000, 0.0000000000000000000, 0.0000000000000000000 ) ) ;
#4 = ORGANIZATION ( 'UNSPECIFIED', 'UNSPECIFIED', '' ) ;
#5 = VERTEX_POINT ( 'NONE', #161 ) ;
#6 = CC_DESIGN_PERSON_AND_ORGANIZATION_ASSIGNMENT ( #47, #223, ( #189 ) ) ;
#7 = CYLINDRICAL_SURFACE ( 'NONE', #95, 0.4399999999999995026 ) ;
#8 = ORIENTED_EDGE ( 'NONE', *, *, #214, .F. ) ;
#9 = CC_DESIGN_APPROVAL ( #92, ( #160 ) ) ;
#10 = DIRECTION ( 'NONE',  ( 0.0000000000000000000, 1.000000000000000000, 0.0000000000000000000 ) ) ;
#11 = ORIENTED_EDGE ( 'NONE', *, *, #119, .F. ) ;
#12 = VERTEX_POINT ( 'NONE', #66 ) ;
#13 = CC_DESIGN_DATE_AND_TIME_ASSIGNMENT ( #157, #212, ( #126 ) ) ;
#14 = EDGE_LOOP ( 'NONE', ( #11 ) ) ;
#15 = CONICAL_SURFACE ( 'NONE', #177, 1.199999999999999956, 0.7853981633974453924 ) ;
#16 = PERSON_AND_ORGANIZATION ( #99, #4 ) ;
#17 = LOCAL_TIME ( 11, 22, 35.00000000000000000, #192 ) ;
#18 = ADVANCED_FACE ( 'NONE', ( #89 ), #166, .F. ) ;
#19 = CARTESIAN_POINT ( 'NONE',  ( 2.478951750578624367E-14, -8.731519772946173392E-16, 7.099999999999999645 ) ) ;
#20 = CALENDAR_DATE ( 2021, 28, 10 ) ;
#21 = CONICAL_SURFACE ( 'NONE', #196, 1.499999999999998446, 0.2617993877991500740 ) ;
#22 = DIRECTION ( 'NONE',  ( -5.135813185032644414E-31, -1.000000000000000000, -1.445602896647343601E-16 ) ) ;
#23 = APPROVAL ( #152, 'UNSPECIFIED' ) ;
#24 = DIRECTION ( 'NONE',  ( 0.0000000000000000000, -1.000000000000000000, 0.0000000000000000000 ) ) ;
#25 = AXIS2_PLACEMENT_3D ( 'NONE', #207, #154, #130 ) ;
#26 = CIRCLE ( 'NONE', #150, 1.199999999999999956 ) ;
#27 = CARTESIAN_POINT ( 'NONE',  ( 0.0000000000000000000, 0.0000000000000000000, 0.0000000000000000000 ) ) ;
#28 = CARTESIAN_POINT ( 'NONE',  ( 1.326762908760390423E-13, -4.653657836759941941E-15, 38.00000000000000000 ) ) ;
#29 = DESIGN_CONTEXT ( 'detailed design', #178, 'design' ) ;
#30 = DIRECTION ( 'NONE',  ( 3.491481338843133355E-15, -1.224646799147353207E-16, 1.000000000000000000 ) ) ;
#31 = DATE_AND_TIME ( #74, #109 ) ;
#32 = CC_DESIGN_SECURITY_CLASSIFICATION ( #160, ( #189 ) ) ;
#33 = DATE_AND_TIME ( #1, #151 ) ;
#34 = CC_DESIGN_PERSON_AND_ORGANIZATION_ASSIGNMENT ( #16, #118, ( #160 ) ) ;
#35 = PRODUCT_DEFINITION_SHAPE ( 'NONE', 'NONE',  #126 ) ;
#36 = DIRECTION ( 'NONE',  ( -3.491481338843133355E-15, 1.229791517316362731E-16, -1.000000000000000000 ) ) ;
#37 = ORIENTED_EDGE ( 'NONE', *, *, #214, .T. ) ;
#38 = VERTEX_POINT ( 'NONE', #107 ) ;
#39 = ORIENTED_EDGE ( 'NONE', *, *, #209, .F. ) ;
#40 = SECURITY_CLASSIFICATION_LEVEL ( 'unclassified' ) ;
#41 = DIRECTION ( 'NONE',  ( 0.0000000000000000000, 1.000000000000000000, 0.0000000000000000000 ) ) ;
#42 = CC_DESIGN_PERSON_AND_ORGANIZATION_ASSIGNMENT ( #136, #60, ( #141 ) ) ;
#43 = APPROVAL_DATE_TIME ( #33, #92 ) ;
#44 = DIRECTION ( 'NONE',  ( -3.491481338843133355E-15, 1.224646799147353207E-16, -1.000000000000000000 ) ) ;
#45 = CIRCLE ( 'NONE', #75, 1.499999999999998446 ) ;
#46 = COORDINATED_UNIVERSAL_TIME_OFFSET ( 1, 0, .AHEAD. ) ;
#47 = PERSON_AND_ORGANIZATION ( #99, #4 ) ;
#48 = PERSON_AND_ORGANIZATION ( #99, #4 ) ;
#49 = CC_DESIGN_PERSON_AND_ORGANIZATION_ASSIGNMENT ( #175, #129, ( #126 ) ) ;
#50 = AXIS2_PLACEMENT_3D ( 'NONE', #19, #172, #185 ) ;
#51 = ADVANCED_FACE ( 'NONE', ( #191 ), #82, .T. ) ;
#52 = PRODUCT_RELATED_PRODUCT_CATEGORY ( 'detail', '', ( #141 ) ) ;
#53 = DIRECTION ( 'NONE',  ( -3.491481338843133355E-15, 1.229791517316362731E-16, -1.000000000000000000 ) ) ;
#54 = EDGE_LOOP ( 'NONE', ( #37 ) ) ;
#55 = LOCAL_TIME ( 11, 22, 35.00000000000000000, #2 ) ;
#56 = PLANE ( 'NONE',  #101 ) ;
#57 = EDGE_LOOP ( 'NONE', ( #217 ) ) ;
#58 = EDGE_LOOP ( 'NONE', ( #67 ) ) ;
#59 = APPROVAL_PERSON_ORGANIZATION ( #93, #83, #173 ) ;
#60 = PERSON_AND_ORGANIZATION_ROLE ( 'design_owner' ) ;
#61 = ADVANCED_FACE ( 'NONE', ( #98, #174 ), #21, .T. ) ;
#62 = FACE_OUTER_BOUND ( 'NONE', #201, .T. ) ;
#63 = APPROVAL_STATUS ( 'not_yet_approved' ) ;
#64 = AXIS2_PLACEMENT_3D ( 'NONE', #114, #44, #187 ) ;
#65 = DATE_AND_TIME ( #155, #17 ) ;
#66 = CARTESIAN_POINT ( 'NONE',  ( 1.326762908760390423E-13, 1.199999999999995293, 38.00000000000000000 ) ) ;
#67 = ORIENTED_EDGE ( 'NONE', *, *, #102, .F. ) ;
#68 = FACE_OUTER_BOUND ( 'NONE', #54, .T. ) ;
#69 = ORIENTED_EDGE ( 'NONE', *, *, #133, .T. ) ;
#70 = AXIS2_PLACEMENT_3D ( 'NONE', #203, #53, #162 ) ;
#71 = DIRECTION ( 'NONE',  ( 3.491481338843133355E-15, -1.224646799147353207E-16, 1.000000000000000000 ) ) ;
#72 = CARTESIAN_POINT ( 'NONE',  ( 1.316288464743861212E-13, 1.499999999999995337, 37.69999999999999574 ) ) ;
#73 = ADVANCED_FACE ( 'NONE', ( #62, #211 ), #158, .T. ) ;
#74 = CALENDAR_DATE ( 2021, 28, 10 ) ;
#75 = AXIS2_PLACEMENT_3D ( 'NONE', #84, #105, #87 ) ;
#76 = PERSON_AND_ORGANIZATION ( #99, #4 ) ;
#77 = COORDINATED_UNIVERSAL_TIME_OFFSET ( 1, 0, .AHEAD. ) ;
#78 = DIRECTION ( 'NONE',  ( -3.491481338843133355E-15, 1.224646799147353207E-16, -1.000000000000000000 ) ) ;
#79 = APPROVAL_ROLE ( '' ) ;
#80 = CLOSED_SHELL ( 'NONE', ( #165, #193, #51 ) ) ;
#81 = CALENDAR_DATE ( 2021, 28, 10 ) ;
#82 = CONICAL_SURFACE ( 'NONE', #108, 1.499999999999995559, 1.221730476396026388 ) ;
#83 = APPROVAL ( #170, 'UNSPECIFIED' ) ;
#84 = CARTESIAN_POINT ( 'NONE',  ( 3.860172640104184472E-14, -1.359654286380855786E-15, 11.05597385602299632 ) ) ;
#85 = DIRECTION ( 'NONE',  ( 4.293794133377662246E-31, 1.000000000000000000, 1.229791517316362977E-16 ) ) ;
#86 = EDGE_LOOP ( 'NONE', ( #39 ) ) ;
#87 = DIRECTION ( 'NONE',  ( 0.0000000000000000000, 1.000000000000000000, 0.0000000000000000000 ) ) ;
#88 = CARTESIAN_POINT ( 'NONE',  ( 2.478951750578624367E-14, 1.124819836996389237E-32, 7.099999999999999645 ) ) ;
#89 = FACE_OUTER_BOUND ( 'NONE', #58, .T. ) ;
#90 = APPROVAL_PERSON_ORGANIZATION ( #76, #92, #131 ) ;
#91 = FACE_BOUND ( 'NONE', #220, .T. ) ;
#92 = APPROVAL ( #63, 'UNSPECIFIED' ) ;
#93 = PERSON_AND_ORGANIZATION ( #99, #4 ) ;
#94 = DATE_TIME_ROLE ( 'classification_date' ) ;
#95 = AXIS2_PLACEMENT_3D ( 'NONE', #27, #36, #85 ) ;
#96 = AXIS2_PLACEMENT_3D ( 'NONE', #116, #190, #3 ) ;
#97 = APPROVAL_DATE_TIME ( #186, #83 ) ;
#98 = FACE_BOUND ( 'NONE', #148, .T. ) ;
#99 = PERSON ( 'UNSPECIFIED', 'UNSPECIFIED', 'UNSPECIFIED', ('UNSPECIFIED'), ('UNSPECIFIED'), ('UNSPECIFIED') ) ;
#100 = APPLICATION_CONTEXT ( 'configuration controlled 3d designs of mechanical parts and assemblies' ) ;
#101 = AXIS2_PLACEMENT_3D ( 'NONE', #88, #30, #164 ) ;
#102 = EDGE_CURVE ( 'NONE', #12, #12, #26, .T. ) ;
#103 =( NAMED_UNIT ( * ) SI_UNIT ( $, .STERADIAN. ) SOLID_ANGLE_UNIT ( ) );
#104 = CLOSED_SHELL ( 'NONE', ( #73, #153, #18, #61, #215 ) ) ;
#105 = DIRECTION ( 'NONE',  ( -3.491481338843133355E-15, 1.229791517316362731E-16, -1.000000000000000000 ) ) ;
#106 = ORIENTED_EDGE ( 'NONE', *, *, #143, .T. ) ;
#107 = CARTESIAN_POINT ( 'NONE',  ( 2.478951750578624367E-14, 0.4399999999999986700, 7.099999999999999645 ) ) ;
#108 = AXIS2_PLACEMENT_3D ( 'NONE', #132, #176, #22 ) ;
#109 = LOCAL_TIME ( 11, 22, 35.00000000000000000, #77 ) ;
#110 = MANIFOLD_SOLID_BREP ( 'Corps-Déplacer/Copier1[1]', #104 ) ;
#111 = PLANE ( 'NONE',  #204 ) ;
#112 = EDGE_LOOP ( 'NONE', ( #124 ) ) ;
#113 = APPLICATION_PROTOCOL_DEFINITION ( 'international standard', 'config_control_design', 1994, #178 ) ;
#114 = CARTESIAN_POINT ( 'NONE',  ( 5.591499235673224330E-16, -1.961233922467696841E-17, 0.1601469030771308921 ) ) ;
#115 = CARTESIAN_POINT ( 'NONE',  ( 1.326762908760390423E-13, -4.653657836759941941E-15, 38.00000000000000000 ) ) ;
#116 = CARTESIAN_POINT ( 'NONE',  ( 0.0000000000000000000, 0.0000000000000000000, 0.0000000000000000000 ) ) ;
#117 = DIRECTION ( 'NONE',  ( 4.275831445896958607E-31, 1.000000000000000000, 1.224646799147353207E-16 ) ) ;
#118 = PERSON_AND_ORGANIZATION_ROLE ( 'classification_officer' ) ;
#119 = EDGE_CURVE ( 'NONE', #5, #5, #171, .T. ) ;
#120 = CIRCLE ( 'NONE', #159, 1.499999999999999778 ) ;
#121 = LOCAL_TIME ( 11, 22, 35.00000000000000000, #46 ) ;
#122 = EDGE_LOOP ( 'NONE', ( #145 ) ) ;
#123 = DIRECTION ( 'NONE',  ( -4.275831445896958607E-31, -1.000000000000000000, -1.224646799147353207E-16 ) ) ;
#124 = ORIENTED_EDGE ( 'NONE', *, *, #133, .F. ) ;
#125 = DIRECTION ( 'NONE',  ( 0.0000000000000000000, 1.000000000000000000, 0.0000000000000000000 ) ) ;
#126 = PRODUCT_DEFINITION ( 'UNKNOWN', '', #189, #29 ) ;
#127 = UNCERTAINTY_MEASURE_WITH_UNIT (LENGTH_MEASURE( 1.000000000000000082E-05 ), #183, 'distance_accuracy_value', 'NONE');
#128 = ORIENTED_EDGE ( 'NONE', *, *, #143, .F. ) ;
#129 = PERSON_AND_ORGANIZATION_ROLE ( 'creator' ) ;
#130 = DIRECTION ( 'NONE',  ( 4.275831445896959482E-31, 1.000000000000000000, 1.224646799147353207E-16 ) ) ;
#131 = APPROVAL_ROLE ( '' ) ;
#132 = CARTESIAN_POINT ( 'NONE',  ( 1.906192921252232855E-15, -6.686024735685322183E-17, 0.5459553513993090634 ) ) ;
#133 = EDGE_CURVE ( 'NONE', #200, #200, #142, .T. ) ;
#134 = PERSON_AND_ORGANIZATION_ROLE ( 'creator' ) ;
#135 = DIRECTION ( 'NONE',  ( 3.491481338843133355E-15, -1.229791517316362731E-16, 1.000000000000000000 ) ) ;
#136 = PERSON_AND_ORGANIZATION ( #99, #4 ) ;
#137 = DIRECTION ( 'NONE',  ( -3.491481338843133355E-15, 1.224646799147353207E-16, -1.000000000000000000 ) ) ;
#138 = CC_DESIGN_DATE_AND_TIME_ASSIGNMENT ( #31, #94, ( #160 ) ) ;
#139 = MECHANICAL_CONTEXT ( 'NONE', #100, 'mechanical' ) ;
#140 = CARTESIAN_POINT ( 'NONE',  ( 1.326762908760390423E-13, 8.998558695971077224E-33, 38.00000000000000000 ) ) ;
#141 = PRODUCT ( '962868', '962868', '', ( #139 ) ) ;
#142 = CIRCLE ( 'NONE', #50, 0.4399999999999995026 ) ;
#143 = EDGE_CURVE ( 'NONE', #180, #180, #45, .T. ) ;
#144 =( NAMED_UNIT ( * ) PLANE_ANGLE_UNIT ( ) SI_UNIT ( $, .RADIAN. ) );
#145 = ORIENTED_EDGE ( 'NONE', *, *, #119, .T. ) ;
#146 = FACE_OUTER_BOUND ( 'NONE', #86, .T. ) ;
#147 = FACE_OUTER_BOUND ( 'NONE', #14, .T. ) ;
#148 = EDGE_LOOP ( 'NONE', ( #8 ) ) ;
#149 = CARTESIAN_POINT ( 'NONE',  ( 2.478951750578624367E-14, 0.4399999999999986700, 7.099999999999999645 ) ) ;
#150 = AXIS2_PLACEMENT_3D ( 'NONE', #115, #78, #41 ) ;
#151 = LOCAL_TIME ( 11, 22, 35.00000000000000000, #206 ) ;
#152 = APPROVAL_STATUS ( 'not_yet_approved' ) ;
#153 = ADVANCED_FACE ( 'NONE', ( #146, #91 ), #15, .T. ) ;
#154 = DIRECTION ( 'NONE',  ( -3.491481338843133355E-15, 1.224646799147353207E-16, -1.000000000000000000 ) ) ;
#155 = CALENDAR_DATE ( 2021, 28, 10 ) ;
#156 = APPROVAL_PERSON_ORGANIZATION ( #48, #23, #79 ) ;
#157 = DATE_AND_TIME ( #81, #55 ) ;
#158 = CYLINDRICAL_SURFACE ( 'NONE', #25, 1.499999999999998002 ) ;
#159 = AXIS2_PLACEMENT_3D ( 'NONE', #219, #181, #125 ) ;
#160 = SECURITY_CLASSIFICATION ( '', '', #40 ) ;
#161 = CARTESIAN_POINT ( 'NONE',  ( 5.591499235673223344E-16, -0.4399999999999995026, 0.1601469030771308366 ) ) ;
#162 = DIRECTION ( 'NONE',  ( 0.0000000000000000000, 1.000000000000000000, 0.0000000000000000000 ) ) ;
#163 = EDGE_LOOP ( 'NONE', ( #69 ) ) ;
#164 = DIRECTION ( 'NONE',  ( -4.275831445896958607E-31, -1.000000000000000000, -1.224646799147353207E-16 ) ) ;
#165 = ADVANCED_FACE ( 'NONE', ( #182 ), #111, .T. ) ;
#166 = PLANE ( 'NONE',  #188 ) ;
#167 = FACE_OUTER_BOUND ( 'NONE', #163, .T. ) ;
#168 = APPROVAL_DATE_TIME ( #65, #23 ) ;
#169 = ORIENTED_EDGE ( 'NONE', *, *, #102, .T. ) ;
#170 = APPROVAL_STATUS ( 'not_yet_approved' ) ;
#171 = CIRCLE ( 'NONE', #64, 0.4399999999999995026 ) ;
#172 = DIRECTION ( 'NONE',  ( -3.491481338843133355E-15, 1.229791517316362731E-16, -1.000000000000000000 ) ) ;
#173 = APPROVAL_ROLE ( '' ) ;
#174 = FACE_OUTER_BOUND ( 'NONE', #222, .T. ) ;
#175 = PERSON_AND_ORGANIZATION ( #99, #4 ) ;
#176 = DIRECTION ( 'NONE',  ( 3.491481338843133355E-15, -1.224646799147353207E-16, 1.000000000000000000 ) ) ;
#177 = AXIS2_PLACEMENT_3D ( 'NONE', #28, #216, #10 ) ;
#178 = APPLICATION_CONTEXT ( 'configuration controlled 3d designs of mechanical parts and assemblies' ) ;
#179 =( GEOMETRIC_REPRESENTATION_CONTEXT ( 3 ) GLOBAL_UNCERTAINTY_ASSIGNED_CONTEXT ( ( #127 ) ) GLOBAL_UNIT_ASSIGNED_CONTEXT ( ( #183, #144, #103 ) ) REPRESENTATION_CONTEXT ( 'NONE', 'WORKASPACE' ) );
#180 = VERTEX_POINT ( 'NONE', #221 ) ;
#181 = DIRECTION ( 'NONE',  ( -3.491481338843133355E-15, 1.224646799147353207E-16, -1.000000000000000000 ) ) ;
#182 = FACE_OUTER_BOUND ( 'NONE', #112, .T. ) ;
#183 =( LENGTH_UNIT ( ) NAMED_UNIT ( * ) SI_UNIT ( .MILLI., .METRE. ) );
#184 = CC_DESIGN_APPROVAL ( #23, ( #189 ) ) ;
#185 = DIRECTION ( 'NONE',  ( 0.0000000000000000000, 1.000000000000000000, 0.0000000000000000000 ) ) ;
#186 = DATE_AND_TIME ( #20, #121 ) ;
#187 = DIRECTION ( 'NONE',  ( -4.377113509970995432E-31, -1.000000000000000000, -1.232047923278983678E-16 ) ) ;
#188 = AXIS2_PLACEMENT_3D ( 'NONE', #140, #137, #117 ) ;
#189 = PRODUCT_DEFINITION_FORMATION_WITH_SPECIFIED_SOURCE ( 'ANY', '', #141, .NOT_KNOWN. ) ;
#190 = DIRECTION ( 'NONE',  ( 0.0000000000000000000, 0.0000000000000000000, 1.000000000000000000 ) ) ;
#191 = FACE_OUTER_BOUND ( 'NONE', #122, .T. ) ;
#192 = COORDINATED_UNIVERSAL_TIME_OFFSET ( 1, 0, .AHEAD. ) ;
#193 = ADVANCED_FACE ( 'NONE', ( #167, #147 ), #7, .T. ) ;
#194 = CARTESIAN_POINT ( 'NONE',  ( 3.860172640104184472E-14, -1.359654286380855786E-15, 11.05597385602299632 ) ) ;
#195 = MANIFOLD_SOLID_BREP ( 'Corps-Déplacer/Copier1[2]', #80 ) ;
#196 = AXIS2_PLACEMENT_3D ( 'NONE', #194, #135, #24 ) ;
#197 = CC_DESIGN_APPROVAL ( #83, ( #126 ) ) ;
#198 = CC_DESIGN_PERSON_AND_ORGANIZATION_ASSIGNMENT ( #210, #134, ( #189 ) ) ;
#199 = CARTESIAN_POINT ( 'NONE',  ( 2.478951750578624367E-14, 1.124819836996389237E-32, 7.099999999999999645 ) ) ;
#200 = VERTEX_POINT ( 'NONE', #149 ) ;
#201 = EDGE_LOOP ( 'NONE', ( #128 ) ) ;
#202 = VERTEX_POINT ( 'NONE', #72 ) ;
#203 = CARTESIAN_POINT ( 'NONE',  ( 2.478951750578624367E-14, -8.731519772946173392E-16, 7.099999999999999645 ) ) ;
#204 = AXIS2_PLACEMENT_3D ( 'NONE', #199, #71, #123 ) ;
#205 = APPLICATION_PROTOCOL_DEFINITION ( 'international standard', 'config_control_design', 1994, #100 ) ;
#206 = COORDINATED_UNIVERSAL_TIME_OFFSET ( 1, 0, .AHEAD. ) ;
#207 = CARTESIAN_POINT ( 'NONE',  ( 0.0000000000000000000, 0.0000000000000000000, 0.0000000000000000000 ) ) ;
#208 = SHAPE_DEFINITION_REPRESENTATION ( #35, #213 ) ;
#209 = EDGE_CURVE ( 'NONE', #202, #202, #120, .T. ) ;
#210 = PERSON_AND_ORGANIZATION ( #99, #4 ) ;
#211 = FACE_OUTER_BOUND ( 'NONE', #57, .T. ) ;
#212 = DATE_TIME_ROLE ( 'creation_date' ) ;
#213 = ADVANCED_BREP_SHAPE_REPRESENTATION ( '962868', ( #110, #195, #96 ), #179 ) ;
#214 = EDGE_CURVE ( 'NONE', #38, #38, #218, .T. ) ;
#215 = ADVANCED_FACE ( 'NONE', ( #68 ), #56, .F. ) ;
#216 = DIRECTION ( 'NONE',  ( -3.491481338843133355E-15, 1.224646799147353207E-16, -1.000000000000000000 ) ) ;
#217 = ORIENTED_EDGE ( 'NONE', *, *, #209, .T. ) ;
#218 = CIRCLE ( 'NONE', #70, 0.4399999999999995026 ) ;
#219 = CARTESIAN_POINT ( 'NONE',  ( 1.316288464743861212E-13, -4.616918432785521081E-15, 37.69999999999999574 ) ) ;
#220 = EDGE_LOOP ( 'NONE', ( #169 ) ) ;
#221 = CARTESIAN_POINT ( 'NONE',  ( 3.860172640104184472E-14, 1.499999999999997113, 11.05597385602299632 ) ) ;
#222 = EDGE_LOOP ( 'NONE', ( #106 ) ) ;
#223 = PERSON_AND_ORGANIZATION_ROLE ( 'design_supplier' ) ;
ENDSEC;
END-ISO-10303-21;
