ISO-10303-21;
HEADER;
FILE_DESCRIPTION (( 'STEP AP203' ),
    '1' );
FILE_NAME ('962867.step',
    '2021-10-28T09:22:34',
    ( '' ),
    ( '' ),
    'SwSTEP 2.0',
    'SolidWorks 2019',
    '' );
FILE_SCHEMA (( 'CONFIG_CONTROL_DESIGN' ));
ENDSEC;

DATA;
#1 = FACE_OUTER_BOUND ( 'NONE', #194, .T. ) ;
#2 = FACE_OUTER_BOUND ( 'NONE', #183, .T. ) ;
#3 = DIRECTION ( 'NONE',  ( 0.0000000000000000000, 1.000000000000000000, 0.0000000000000000000 ) ) ;
#4 = DIRECTION ( 'NONE',  ( -3.491481338843133355E-15, 1.229791517316362731E-16, -1.000000000000000000 ) ) ;
#5 = CARTESIAN_POINT ( 'NONE',  ( 2.478951750578624367E-14, 0.4349999999999986655, 7.099999999999999645 ) ) ;
#6 = APPROVAL ( #43, 'UNSPECIFIED' ) ;
#7 = DIRECTION ( 'NONE',  ( -3.491481338843133355E-15, 1.224646799147353207E-16, -1.000000000000000000 ) ) ;
#8 = APPROVAL_ROLE ( '' ) ;
#9 = COORDINATED_UNIVERSAL_TIME_OFFSET ( 1, 0, .AHEAD. ) ;
#10 = DATE_AND_TIME ( #97, #23 ) ;
#11 = APPLICATION_PROTOCOL_DEFINITION ( 'international standard', 'config_control_design', 1994, #146 ) ;
#12 = CONICAL_SURFACE ( 'NONE', #95, 1.499999999999998446, 0.2617993877991500740 ) ;
#13 = EDGE_LOOP ( 'NONE', ( #15 ) ) ;
#14 = CC_DESIGN_APPROVAL ( #6, ( #212 ) ) ;
#15 = ORIENTED_EDGE ( 'NONE', *, *, #207, .T. ) ;
#16 = CARTESIAN_POINT ( 'NONE',  ( 3.866687832979305930E-14, -1.361949108593526813E-15, 11.07463411006084009 ) ) ;
#17 = FACE_OUTER_BOUND ( 'NONE', #22, .T. ) ;
#18 = ADVANCED_FACE ( 'NONE', ( #156, #1 ), #210, .T. ) ;
#19 = FACE_OUTER_BOUND ( 'NONE', #76, .T. ) ;
#20 =( LENGTH_UNIT ( ) NAMED_UNIT ( * ) SI_UNIT ( .MILLI., .METRE. ) );
#21 = SECURITY_CLASSIFICATION ( '', '', #62 ) ;
#22 = EDGE_LOOP ( 'NONE', ( #181 ) ) ;
#23 = LOCAL_TIME ( 11, 22, 34.00000000000000000, #73 ) ;
#24 = ADVANCED_FACE ( 'NONE', ( #2, #158 ), #65, .T. ) ;
#25 = DIRECTION ( 'NONE',  ( 0.0000000000000000000, 0.0000000000000000000, 1.000000000000000000 ) ) ;
#26 = CALENDAR_DATE ( 2021, 28, 10 ) ;
#27 = CARTESIAN_POINT ( 'NONE',  ( 0.0000000000000000000, 0.0000000000000000000, 0.0000000000000000000 ) ) ;
#28 = PERSON_AND_ORGANIZATION ( #123, #115 ) ;
#29 = COORDINATED_UNIVERSAL_TIME_OFFSET ( 1, 0, .AHEAD. ) ;
#30 = MANIFOLD_SOLID_BREP ( 'Corps-Déplacer/Copier1[1]', #109 ) ;
#31 = FACE_OUTER_BOUND ( 'NONE', #78, .T. ) ;
#32 = DIRECTION ( 'NONE',  ( -4.275831445896958607E-31, -1.000000000000000000, -1.224646799147353207E-16 ) ) ;
#33 = FACE_OUTER_BOUND ( 'NONE', #38, .T. ) ;
#34 = CIRCLE ( 'NONE', #169, 1.499999999999998446 ) ;
#35 = CC_DESIGN_PERSON_AND_ORGANIZATION_ASSIGNMENT ( #205, #129, ( #221 ) ) ;
#36 = DIRECTION ( 'NONE',  ( 0.0000000000000000000, 1.000000000000000000, 0.0000000000000000000 ) ) ;
#37 = FACE_BOUND ( 'NONE', #166, .T. ) ;
#38 = EDGE_LOOP ( 'NONE', ( #125 ) ) ;
#39 = DIRECTION ( 'NONE',  ( -3.491481338843133355E-15, 1.229791517316362731E-16, -1.000000000000000000 ) ) ;
#40 = APPROVAL_DATE_TIME ( #201, #140 ) ;
#41 = LOCAL_TIME ( 11, 22, 34.00000000000000000, #29 ) ;
#42 = DESIGN_CONTEXT ( 'detailed design', #146, 'design' ) ;
#43 = APPROVAL_STATUS ( 'not_yet_approved' ) ;
#44 = DATE_TIME_ROLE ( 'classification_date' ) ;
#45 = CC_DESIGN_APPROVAL ( #196, ( #221 ) ) ;
#46 = APPROVAL_ROLE ( '' ) ;
#47 = CC_DESIGN_PERSON_AND_ORGANIZATION_ASSIGNMENT ( #28, #171, ( #212 ) ) ;
#48 = CC_DESIGN_SECURITY_CLASSIFICATION ( #21, ( #221 ) ) ;
#49 = CARTESIAN_POINT ( 'NONE',  ( 0.0000000000000000000, 0.0000000000000000000, 0.0000000000000000000 ) ) ;
#50 = DIRECTION ( 'NONE',  ( 4.275831445896959482E-31, 1.000000000000000000, 1.224646799147353207E-16 ) ) ;
#51 = CARTESIAN_POINT ( 'NONE',  ( 2.478951750578624367E-14, 0.4349999999999986655, 7.099999999999999645 ) ) ;
#52 = ORIENTED_EDGE ( 'NONE', *, *, #134, .F. ) ;
#53 = AXIS2_PLACEMENT_3D ( 'NONE', #167, #84, #199 ) ;
#54 =( GEOMETRIC_REPRESENTATION_CONTEXT ( 3 ) GLOBAL_UNCERTAINTY_ASSIGNED_CONTEXT ( ( #112 ) ) GLOBAL_UNIT_ASSIGNED_CONTEXT ( ( #20, #141, #61 ) ) REPRESENTATION_CONTEXT ( 'NONE', 'WORKASPACE' ) );
#55 = DIRECTION ( 'NONE',  ( -3.491481338843133355E-15, 1.224646799147353207E-16, -1.000000000000000000 ) ) ;
#56 = DIRECTION ( 'NONE',  ( -4.427425159510892354E-31, -1.000000000000000000, -1.246209393661500851E-16 ) ) ;
#57 = ORIENTED_EDGE ( 'NONE', *, *, #89, .F. ) ;
#58 = APPROVAL_ROLE ( '' ) ;
#59 = CLOSED_SHELL ( 'NONE', ( #170, #24, #118 ) ) ;
#60 = PERSON_AND_ORGANIZATION ( #123, #115 ) ;
#61 =( NAMED_UNIT ( * ) SI_UNIT ( $, .STERADIAN. ) SOLID_ANGLE_UNIT ( ) );
#62 = SECURITY_CLASSIFICATION_LEVEL ( 'unclassified' ) ;
#63 = ADVANCED_FACE ( 'NONE', ( #31 ), #102, .F. ) ;
#64 = EDGE_LOOP ( 'NONE', ( #52 ) ) ;
#65 = CYLINDRICAL_SURFACE ( 'NONE', #98, 0.4349999999999994982 ) ;
#66 = CARTESIAN_POINT ( 'NONE',  ( 1.906192921252232855E-15, -6.686024735685322183E-17, 0.5459553513993090634 ) ) ;
#67 = EDGE_LOOP ( 'NONE', ( #174 ) ) ;
#68 = VERTEX_POINT ( 'NONE', #51 ) ;
#69 = CARTESIAN_POINT ( 'NONE',  ( 2.478951750578624367E-14, -8.731519772946173392E-16, 7.099999999999999645 ) ) ;
#70 = AXIS2_PLACEMENT_3D ( 'NONE', #217, #55, #36 ) ;
#71 = FACE_BOUND ( 'NONE', #88, .T. ) ;
#72 = FACE_OUTER_BOUND ( 'NONE', #67, .T. ) ;
#73 = COORDINATED_UNIVERSAL_TIME_OFFSET ( 1, 0, .AHEAD. ) ;
#74 = PERSON_AND_ORGANIZATION ( #123, #115 ) ;
#75 = CC_DESIGN_DATE_AND_TIME_ASSIGNMENT ( #92, #111, ( #212 ) ) ;
#76 = EDGE_LOOP ( 'NONE', ( #162 ) ) ;
#77 = APPROVAL_PERSON_ORGANIZATION ( #91, #6, #8 ) ;
#78 = EDGE_LOOP ( 'NONE', ( #211 ) ) ;
#79 = DIRECTION ( 'NONE',  ( 4.293794133377662246E-31, 1.000000000000000000, 1.229791517316362731E-16 ) ) ;
#80 = ADVANCED_FACE ( 'NONE', ( #72 ), #138, .F. ) ;
#81 = DIRECTION ( 'NONE',  ( 3.491481338843133355E-15, -1.224646799147353207E-16, 1.000000000000000000 ) ) ;
#82 = ORIENTED_EDGE ( 'NONE', *, *, #207, .F. ) ;
#83 = AXIS2_PLACEMENT_3D ( 'NONE', #69, #4, #161 ) ;
#84 = DIRECTION ( 'NONE',  ( -3.491481338843133355E-15, 1.229791517316362731E-16, -1.000000000000000000 ) ) ;
#85 = ORIENTED_EDGE ( 'NONE', *, *, #130, .T. ) ;
#86 = DIRECTION ( 'NONE',  ( 3.491481338843133355E-15, -1.229791517316362731E-16, 1.000000000000000000 ) ) ;
#87 = VERTEX_POINT ( 'NONE', #5 ) ;
#88 = EDGE_LOOP ( 'NONE', ( #200 ) ) ;
#89 = EDGE_CURVE ( 'NONE', #68, #68, #190, .T. ) ;
#90 = AXIS2_PLACEMENT_3D ( 'NONE', #180, #81, #179 ) ;
#91 = PERSON_AND_ORGANIZATION ( #123, #115 ) ;
#92 = DATE_AND_TIME ( #153, #41 ) ;
#93 = AXIS2_PLACEMENT_3D ( 'NONE', #164, #197, #32 ) ;
#94 = APPLICATION_PROTOCOL_DEFINITION ( 'international standard', 'config_control_design', 1994, #142 ) ;
#95 = AXIS2_PLACEMENT_3D ( 'NONE', #106, #86, #107 ) ;
#96 = APPROVAL_STATUS ( 'not_yet_approved' ) ;
#97 = CALENDAR_DATE ( 2021, 28, 10 ) ;
#98 = AXIS2_PLACEMENT_3D ( 'NONE', #49, #119, #79 ) ;
#99 = APPROVAL_PERSON_ORGANIZATION ( #133, #140, #46 ) ;
#100 = PRODUCT ( '962867', '962867', '', ( #206 ) ) ;
#101 = EDGE_LOOP ( 'NONE', ( #82 ) ) ;
#102 = PLANE ( 'NONE',  #160 ) ;
#103 = CC_DESIGN_PERSON_AND_ORGANIZATION_ASSIGNMENT ( #152, #187, ( #100 ) ) ;
#104 = VERTEX_POINT ( 'NONE', #105 ) ;
#105 = CARTESIAN_POINT ( 'NONE',  ( 3.866687832979305930E-14, 1.499999999999997113, 11.07463411006084009 ) ) ;
#106 = CARTESIAN_POINT ( 'NONE',  ( 3.866687832979305930E-14, -1.361949108593526813E-15, 11.07463411006084009 ) ) ;
#107 = DIRECTION ( 'NONE',  ( 0.0000000000000000000, -1.000000000000000000, 0.0000000000000000000 ) ) ;
#108 = ADVANCED_FACE ( 'NONE', ( #17, #71 ), #117, .T. ) ;
#109 = CLOSED_SHELL ( 'NONE', ( #18, #108, #63, #203, #80 ) ) ;
#110 = SHAPE_DEFINITION_REPRESENTATION ( #191, #193 ) ;
#111 = DATE_TIME_ROLE ( 'creation_date' ) ;
#112 = UNCERTAINTY_MEASURE_WITH_UNIT (LENGTH_MEASURE( 1.000000000000000082E-05 ), #20, 'distance_accuracy_value', 'NONE');
#113 = CIRCLE ( 'NONE', #157, 0.4349999999999994982 ) ;
#114 = DIRECTION ( 'NONE',  ( 1.000000000000000000, 0.0000000000000000000, 0.0000000000000000000 ) ) ;
#115 = ORGANIZATION ( 'UNSPECIFIED', 'UNSPECIFIED', '' ) ;
#116 = CC_DESIGN_PERSON_AND_ORGANIZATION_ASSIGNMENT ( #74, #223, ( #221 ) ) ;
#117 = CONICAL_SURFACE ( 'NONE', #177, 1.199999999999999956, 0.7853981633974453924 ) ;
#118 = ADVANCED_FACE ( 'NONE', ( #127 ), #220, .T. ) ;
#119 = DIRECTION ( 'NONE',  ( -3.491481338843133355E-15, 1.229791517316362731E-16, -1.000000000000000000 ) ) ;
#120 = LOCAL_TIME ( 11, 22, 34.00000000000000000, #204 ) ;
#121 = DIRECTION ( 'NONE',  ( 0.0000000000000000000, 1.000000000000000000, 0.0000000000000000000 ) ) ;
#122 = DIRECTION ( 'NONE',  ( -5.135813185032644414E-31, -1.000000000000000000, -1.445602896647343601E-16 ) ) ;
#123 = PERSON ( 'UNSPECIFIED', 'UNSPECIFIED', 'UNSPECIFIED', ('UNSPECIFIED'), ('UNSPECIFIED'), ('UNSPECIFIED') ) ;
#124 = CARTESIAN_POINT ( 'NONE',  ( 5.527959471631480803E-16, -1.938947173348745516E-17, 0.1583270519057997927 ) ) ;
#125 = ORIENTED_EDGE ( 'NONE', *, *, #130, .F. ) ;
#126 = CC_DESIGN_DATE_AND_TIME_ASSIGNMENT ( #132, #44, ( #21 ) ) ;
#127 = FACE_OUTER_BOUND ( 'NONE', #13, .T. ) ;
#128 = CARTESIAN_POINT ( 'NONE',  ( 5.527959471631478830E-16, -0.4349999999999994982, 0.1583270519057997372 ) ) ;
#129 = PERSON_AND_ORGANIZATION_ROLE ( 'design_supplier' ) ;
#130 = EDGE_CURVE ( 'NONE', #87, #87, #135, .T. ) ;
#131 = CC_DESIGN_APPROVAL ( #140, ( #21 ) ) ;
#132 = DATE_AND_TIME ( #185, #163 ) ;
#133 = PERSON_AND_ORGANIZATION ( #123, #115 ) ;
#134 = EDGE_CURVE ( 'NONE', #104, #104, #34, .T. ) ;
#135 = CIRCLE ( 'NONE', #53, 0.4349999999999994982 ) ;
#136 = CARTESIAN_POINT ( 'NONE',  ( 0.0000000000000000000, 0.0000000000000000000, 0.0000000000000000000 ) ) ;
#137 = EDGE_CURVE ( 'NONE', #178, #178, #186, .T. ) ;
#138 = PLANE ( 'NONE',  #90 ) ;
#139 = VERTEX_POINT ( 'NONE', #214 ) ;
#140 = APPROVAL ( #96, 'UNSPECIFIED' ) ;
#141 =( NAMED_UNIT ( * ) PLANE_ANGLE_UNIT ( ) SI_UNIT ( $, .RADIAN. ) );
#142 = APPLICATION_CONTEXT ( 'configuration controlled 3d designs of mechanical parts and assemblies' ) ;
#143 = AXIS2_PLACEMENT_3D ( 'NONE', #145, #7, #121 ) ;
#144 = APPROVAL_PERSON_ORGANIZATION ( #168, #196, #58 ) ;
#145 = CARTESIAN_POINT ( 'NONE',  ( 1.316288464743861212E-13, -4.616918432785521081E-15, 37.69999999999999574 ) ) ;
#146 = APPLICATION_CONTEXT ( 'configuration controlled 3d designs of mechanical parts and assemblies' ) ;
#147 = DIRECTION ( 'NONE',  ( -3.491481338843133355E-15, 1.224646799147353207E-16, -1.000000000000000000 ) ) ;
#148 = EDGE_CURVE ( 'NONE', #139, #139, #173, .T. ) ;
#149 = APPROVAL_DATE_TIME ( #10, #6 ) ;
#150 = AXIS2_PLACEMENT_3D ( 'NONE', #27, #25, #114 ) ;
#151 = CALENDAR_DATE ( 2021, 28, 10 ) ;
#152 = PERSON_AND_ORGANIZATION ( #123, #115 ) ;
#153 = CALENDAR_DATE ( 2021, 28, 10 ) ;
#154 = APPROVAL_STATUS ( 'not_yet_approved' ) ;
#155 = CC_DESIGN_PERSON_AND_ORGANIZATION_ASSIGNMENT ( #60, #202, ( #21 ) ) ;
#156 = FACE_OUTER_BOUND ( 'NONE', #64, .T. ) ;
#157 = AXIS2_PLACEMENT_3D ( 'NONE', #124, #182, #56 ) ;
#158 = FACE_OUTER_BOUND ( 'NONE', #101, .T. ) ;
#159 = CARTESIAN_POINT ( 'NONE',  ( 1.326762908760390423E-13, 8.998558695971077224E-33, 38.00000000000000000 ) ) ;
#160 = AXIS2_PLACEMENT_3D ( 'NONE', #159, #176, #188 ) ;
#161 = DIRECTION ( 'NONE',  ( 0.0000000000000000000, 1.000000000000000000, 0.0000000000000000000 ) ) ;
#162 = ORIENTED_EDGE ( 'NONE', *, *, #134, .T. ) ;
#163 = LOCAL_TIME ( 11, 22, 34.00000000000000000, #184 ) ;
#164 = CARTESIAN_POINT ( 'NONE',  ( 2.478951750578624367E-14, 1.124819836996389237E-32, 7.099999999999999645 ) ) ;
#165 = VERTEX_POINT ( 'NONE', #128 ) ;
#166 = EDGE_LOOP ( 'NONE', ( #57 ) ) ;
#167 = CARTESIAN_POINT ( 'NONE',  ( 2.478951750578624367E-14, -8.731519772946173392E-16, 7.099999999999999645 ) ) ;
#168 = PERSON_AND_ORGANIZATION ( #123, #115 ) ;
#169 = AXIS2_PLACEMENT_3D ( 'NONE', #16, #39, #213 ) ;
#170 = ADVANCED_FACE ( 'NONE', ( #33 ), #195, .T. ) ;
#171 = PERSON_AND_ORGANIZATION_ROLE ( 'creator' ) ;
#172 = LOCAL_TIME ( 11, 22, 34.00000000000000000, #9 ) ;
#173 = CIRCLE ( 'NONE', #70, 1.199999999999999956 ) ;
#174 = ORIENTED_EDGE ( 'NONE', *, *, #89, .T. ) ;
#175 = PRODUCT_RELATED_PRODUCT_CATEGORY ( 'detail', '', ( #100 ) ) ;
#176 = DIRECTION ( 'NONE',  ( -3.491481338843133355E-15, 1.224646799147353207E-16, -1.000000000000000000 ) ) ;
#177 = AXIS2_PLACEMENT_3D ( 'NONE', #216, #147, #3 ) ;
#178 = VERTEX_POINT ( 'NONE', #198 ) ;
#179 = DIRECTION ( 'NONE',  ( -4.275831445896958607E-31, -1.000000000000000000, -1.224646799147353207E-16 ) ) ;
#180 = CARTESIAN_POINT ( 'NONE',  ( 2.478951750578624367E-14, 1.124819836996389237E-32, 7.099999999999999645 ) ) ;
#181 = ORIENTED_EDGE ( 'NONE', *, *, #137, .F. ) ;
#182 = DIRECTION ( 'NONE',  ( -3.491481338843133355E-15, 1.224646799147353207E-16, -1.000000000000000000 ) ) ;
#183 = EDGE_LOOP ( 'NONE', ( #85 ) ) ;
#184 = COORDINATED_UNIVERSAL_TIME_OFFSET ( 1, 0, .AHEAD. ) ;
#185 = CALENDAR_DATE ( 2021, 28, 10 ) ;
#186 = CIRCLE ( 'NONE', #143, 1.499999999999999778 ) ;
#187 = PERSON_AND_ORGANIZATION_ROLE ( 'design_owner' ) ;
#188 = DIRECTION ( 'NONE',  ( 4.275831445896958607E-31, 1.000000000000000000, 1.224646799147353207E-16 ) ) ;
#189 = MANIFOLD_SOLID_BREP ( 'Corps-Déplacer/Copier1[2]', #59 ) ;
#190 = CIRCLE ( 'NONE', #83, 0.4349999999999994982 ) ;
#191 = PRODUCT_DEFINITION_SHAPE ( 'NONE', 'NONE',  #212 ) ;
#192 = AXIS2_PLACEMENT_3D ( 'NONE', #136, #209, #50 ) ;
#193 = ADVANCED_BREP_SHAPE_REPRESENTATION ( '962867', ( #30, #189, #150 ), #54 ) ;
#194 = EDGE_LOOP ( 'NONE', ( #215 ) ) ;
#195 = PLANE ( 'NONE',  #93 ) ;
#196 = APPROVAL ( #154, 'UNSPECIFIED' ) ;
#197 = DIRECTION ( 'NONE',  ( 3.491481338843133355E-15, -1.224646799147353207E-16, 1.000000000000000000 ) ) ;
#198 = CARTESIAN_POINT ( 'NONE',  ( 1.316288464743861212E-13, 1.499999999999995337, 37.69999999999999574 ) ) ;
#199 = DIRECTION ( 'NONE',  ( 0.0000000000000000000, 1.000000000000000000, 0.0000000000000000000 ) ) ;
#200 = ORIENTED_EDGE ( 'NONE', *, *, #148, .T. ) ;
#201 = DATE_AND_TIME ( #151, #172 ) ;
#202 = PERSON_AND_ORGANIZATION_ROLE ( 'classification_officer' ) ;
#203 = ADVANCED_FACE ( 'NONE', ( #37, #19 ), #12, .T. ) ;
#204 = COORDINATED_UNIVERSAL_TIME_OFFSET ( 1, 0, .AHEAD. ) ;
#205 = PERSON_AND_ORGANIZATION ( #123, #115 ) ;
#206 = MECHANICAL_CONTEXT ( 'NONE', #142, 'mechanical' ) ;
#207 = EDGE_CURVE ( 'NONE', #165, #165, #113, .T. ) ;
#208 = AXIS2_PLACEMENT_3D ( 'NONE', #66, #218, #122 ) ;
#209 = DIRECTION ( 'NONE',  ( -3.491481338843133355E-15, 1.224646799147353207E-16, -1.000000000000000000 ) ) ;
#210 = CYLINDRICAL_SURFACE ( 'NONE', #192, 1.499999999999998002 ) ;
#211 = ORIENTED_EDGE ( 'NONE', *, *, #148, .F. ) ;
#212 = PRODUCT_DEFINITION ( 'UNKNOWN', '', #221, #42 ) ;
#213 = DIRECTION ( 'NONE',  ( 0.0000000000000000000, 1.000000000000000000, 0.0000000000000000000 ) ) ;
#214 = CARTESIAN_POINT ( 'NONE',  ( 1.326762908760390423E-13, 1.199999999999995293, 38.00000000000000000 ) ) ;
#215 = ORIENTED_EDGE ( 'NONE', *, *, #137, .T. ) ;
#216 = CARTESIAN_POINT ( 'NONE',  ( 1.326762908760390423E-13, -4.653657836759941941E-15, 38.00000000000000000 ) ) ;
#217 = CARTESIAN_POINT ( 'NONE',  ( 1.326762908760390423E-13, -4.653657836759941941E-15, 38.00000000000000000 ) ) ;
#218 = DIRECTION ( 'NONE',  ( 3.491481338843133355E-15, -1.224646799147353207E-16, 1.000000000000000000 ) ) ;
#219 = DATE_AND_TIME ( #26, #120 ) ;
#220 = CONICAL_SURFACE ( 'NONE', #208, 1.499999999999995559, 1.221730476396026388 ) ;
#221 = PRODUCT_DEFINITION_FORMATION_WITH_SPECIFIED_SOURCE ( 'ANY', '', #100, .NOT_KNOWN. ) ;
#222 = APPROVAL_DATE_TIME ( #219, #196 ) ;
#223 = PERSON_AND_ORGANIZATION_ROLE ( 'creator' ) ;
ENDSEC;
END-ISO-10303-21;
