ISO-10303-21;
HEADER;
FILE_DESCRIPTION (( 'STEP AP203' ),
    '1' );
FILE_NAME ('962866.step',
    '2021-10-28T09:22:34',
    ( '' ),
    ( '' ),
    'SwSTEP 2.0',
    'SolidWorks 2019',
    '' );
FILE_SCHEMA (( 'CONFIG_CONTROL_DESIGN' ));
ENDSEC;

DATA;
#1 = PERSON_AND_ORGANIZATION_ROLE ( 'design_supplier' ) ;
#2 = PERSON_AND_ORGANIZATION_ROLE ( 'classification_officer' ) ;
#3 = COORDINATED_UNIVERSAL_TIME_OFFSET ( 1, 0, .AHEAD. ) ;
#4 = APPROVAL_DATE_TIME ( #38, #52 ) ;
#5 = PERSON_AND_ORGANIZATION_ROLE ( 'creator' ) ;
#6 = EDGE_LOOP ( 'NONE', ( #169 ) ) ;
#7 = FACE_OUTER_BOUND ( 'NONE', #113, .T. ) ;
#8 = MANIFOLD_SOLID_BREP ( 'Corps-Déplacer/Copier1[1]', #211 ) ;
#9 = ADVANCED_FACE ( 'NONE', ( #30, #219 ), #14, .T. ) ;
#10 = ORIENTED_EDGE ( 'NONE', *, *, #108, .F. ) ;
#11 = CARTESIAN_POINT ( 'NONE',  ( 3.873203025854424864E-14, -1.364243930806197247E-15, 11.09329436409868208 ) ) ;
#12 = ORIENTED_EDGE ( 'NONE', *, *, #197, .F. ) ;
#13 = FACE_BOUND ( 'NONE', #43, .T. ) ;
#14 = CONICAL_SURFACE ( 'NONE', #94, 1.499999999999998446, 0.2617993877991501295 ) ;
#15 = DIRECTION ( 'NONE',  ( -3.491481338843133355E-15, 1.224646799147353207E-16, -1.000000000000000000 ) ) ;
#16 = CARTESIAN_POINT ( 'NONE',  ( 5.464419707589746150E-16, -0.4299999999999999933, 0.1565072007344689431 ) ) ;
#17 = DIRECTION ( 'NONE',  ( 0.0000000000000000000, 1.000000000000000000, 0.0000000000000000000 ) ) ;
#18 = ADVANCED_FACE ( 'NONE', ( #7 ), #147, .T. ) ;
#19 = PLANE ( 'NONE',  #155 ) ;
#20 = DIRECTION ( 'NONE',  ( -3.491481338843133355E-15, 1.224646799147353207E-16, -1.000000000000000000 ) ) ;
#21 = APPROVAL_ROLE ( '' ) ;
#22 = CARTESIAN_POINT ( 'NONE',  ( 2.478951750578624367E-14, -8.731519772946173392E-16, 7.099999999999999645 ) ) ;
#23 = CIRCLE ( 'NONE', #173, 0.4299999999999999933 ) ;
#24 = COORDINATED_UNIVERSAL_TIME_OFFSET ( 1, 0, .AHEAD. ) ;
#25 = CIRCLE ( 'NONE', #116, 1.499999999999999778 ) ;
#26 = DATE_TIME_ROLE ( 'classification_date' ) ;
#27 = DATE_AND_TIME ( #212, #126 ) ;
#28 = CARTESIAN_POINT ( 'NONE',  ( 0.0000000000000000000, 0.0000000000000000000, 0.0000000000000000000 ) ) ;
#29 = CARTESIAN_POINT ( 'NONE',  ( 2.478951750578624367E-14, 1.124819836996389237E-32, 7.099999999999999645 ) ) ;
#30 = FACE_BOUND ( 'NONE', #6, .T. ) ;
#31 = ADVANCED_FACE ( 'NONE', ( #174 ), #35, .F. ) ;
#32 = VERTEX_POINT ( 'NONE', #104 ) ;
#33 = DIRECTION ( 'NONE',  ( -3.491481338843133355E-15, 1.224646799147353207E-16, -1.000000000000000000 ) ) ;
#34 = PRODUCT_DEFINITION_FORMATION_WITH_SPECIFIED_SOURCE ( 'ANY', '', #172, .NOT_KNOWN. ) ;
#35 = PLANE ( 'NONE',  #164 ) ;
#36 = CARTESIAN_POINT ( 'NONE',  ( 5.464419707589748122E-16, -1.916660424229796657E-17, 0.1565072007344689986 ) ) ;
#37 = PERSON_AND_ORGANIZATION ( #179, #42 ) ;
#38 = DATE_AND_TIME ( #74, #153 ) ;
#39 = DIRECTION ( 'NONE',  ( -3.491481338843133355E-15, 1.229791517316362731E-16, -1.000000000000000000 ) ) ;
#40 = COORDINATED_UNIVERSAL_TIME_OFFSET ( 1, 0, .AHEAD. ) ;
#41 = CALENDAR_DATE ( 2021, 28, 10 ) ;
#42 = ORGANIZATION ( 'UNSPECIFIED', 'UNSPECIFIED', '' ) ;
#43 = EDGE_LOOP ( 'NONE', ( #188 ) ) ;
#44 = DIRECTION ( 'NONE',  ( 0.0000000000000000000, 1.000000000000000000, 0.0000000000000000000 ) ) ;
#45 = DIRECTION ( 'NONE',  ( 3.491481338843133355E-15, -1.224646799147353207E-16, 1.000000000000000000 ) ) ;
#46 = EDGE_CURVE ( 'NONE', #118, #118, #64, .T. ) ;
#47 = DIRECTION ( 'NONE',  ( -3.491481338843133355E-15, 1.229791517316362731E-16, -1.000000000000000000 ) ) ;
#48 = VERTEX_POINT ( 'NONE', #176 ) ;
#49 = APPROVAL_PERSON_ORGANIZATION ( #92, #186, #57 ) ;
#50 = DIRECTION ( 'NONE',  ( -3.491481338843133355E-15, 1.224646799147353207E-16, -1.000000000000000000 ) ) ;
#51 = APPROVAL_DATE_TIME ( #27, #82 ) ;
#52 = APPROVAL ( #106, 'UNSPECIFIED' ) ;
#53 = CALENDAR_DATE ( 2021, 28, 10 ) ;
#54 = CLOSED_SHELL ( 'NONE', ( #121, #218, #18 ) ) ;
#55 = SHAPE_DEFINITION_REPRESENTATION ( #138, #83 ) ;
#56 = CIRCLE ( 'NONE', #102, 0.4299999999999999933 ) ;
#57 = APPROVAL_ROLE ( '' ) ;
#58 = PLANE ( 'NONE',  #88 ) ;
#59 = VERTEX_POINT ( 'NONE', #103 ) ;
#60 = AXIS2_PLACEMENT_3D ( 'NONE', #75, #213, #98 ) ;
#61 = CC_DESIGN_APPROVAL ( #52, ( #189 ) ) ;
#62 = DIRECTION ( 'NONE',  ( 0.0000000000000000000, 1.000000000000000000, 0.0000000000000000000 ) ) ;
#63 = CC_DESIGN_PERSON_AND_ORGANIZATION_ASSIGNMENT ( #180, #130, ( #123 ) ) ;
#64 = CIRCLE ( 'NONE', #220, 1.499999999999998446 ) ;
#65 = ORIENTED_EDGE ( 'NONE', *, *, #46, .T. ) ;
#66 = ORIENTED_EDGE ( 'NONE', *, *, #192, .T. ) ;
#67 = CC_DESIGN_PERSON_AND_ORGANIZATION_ASSIGNMENT ( #129, #5, ( #34 ) ) ;
#68 = CARTESIAN_POINT ( 'NONE',  ( 2.478951750578624367E-14, 0.4299999999999991052, 7.099999999999999645 ) ) ;
#69 = DIRECTION ( 'NONE',  ( 0.0000000000000000000, 1.000000000000000000, 0.0000000000000000000 ) ) ;
#70 = LOCAL_TIME ( 11, 22, 34.00000000000000000, #72 ) ;
#71 = CARTESIAN_POINT ( 'NONE',  ( 3.873203025854424864E-14, 1.499999999999997113, 11.09329436409868208 ) ) ;
#72 = COORDINATED_UNIVERSAL_TIME_OFFSET ( 1, 0, .AHEAD. ) ;
#73 = LOCAL_TIME ( 11, 22, 34.00000000000000000, #24 ) ;
#74 = CALENDAR_DATE ( 2021, 28, 10 ) ;
#75 = CARTESIAN_POINT ( 'NONE',  ( 0.0000000000000000000, 0.0000000000000000000, 0.0000000000000000000 ) ) ;
#76 = APPROVAL_STATUS ( 'not_yet_approved' ) ;
#77 = DIRECTION ( 'NONE',  ( 4.293794133377662246E-31, 1.000000000000000000, 1.229791517316362731E-16 ) ) ;
#78 = EDGE_LOOP ( 'NONE', ( #222 ) ) ;
#79 = FACE_OUTER_BOUND ( 'NONE', #157, .T. ) ;
#80 = EDGE_LOOP ( 'NONE', ( #12 ) ) ;
#81 = CIRCLE ( 'NONE', #170, 0.4299999999999999933 ) ;
#82 = APPROVAL ( #181, 'UNSPECIFIED' ) ;
#83 = ADVANCED_BREP_SHAPE_REPRESENTATION ( '962866', ( #8, #84, #145 ), #99 ) ;
#84 = MANIFOLD_SOLID_BREP ( 'Corps-Déplacer/Copier1[2]', #54 ) ;
#85 = APPROVAL_PERSON_ORGANIZATION ( #210, #52, #178 ) ;
#86 = EDGE_CURVE ( 'NONE', #59, #59, #109, .T. ) ;
#87 = CC_DESIGN_DATE_AND_TIME_ASSIGNMENT ( #166, #163, ( #123 ) ) ;
#88 = AXIS2_PLACEMENT_3D ( 'NONE', #29, #200, #136 ) ;
#89 = CARTESIAN_POINT ( 'NONE',  ( 2.478951750578624367E-14, 1.124819836996389237E-32, 7.099999999999999645 ) ) ;
#90 =( LENGTH_UNIT ( ) NAMED_UNIT ( * ) SI_UNIT ( .MILLI., .METRE. ) );
#91 = FACE_OUTER_BOUND ( 'NONE', #134, .T. ) ;
#92 = PERSON_AND_ORGANIZATION ( #179, #42 ) ;
#93 = CYLINDRICAL_SURFACE ( 'NONE', #60, 1.499999999999998002 ) ;
#94 = AXIS2_PLACEMENT_3D ( 'NONE', #11, #97, #168 ) ;
#95 = APPLICATION_PROTOCOL_DEFINITION ( 'international standard', 'config_control_design', 1994, #133 ) ;
#96 = DIRECTION ( 'NONE',  ( -3.491481338843133355E-15, 1.229791517316362731E-16, -1.000000000000000000 ) ) ;
#97 = DIRECTION ( 'NONE',  ( 3.491481338843133355E-15, -1.229791517316362731E-16, 1.000000000000000000 ) ) ;
#98 = DIRECTION ( 'NONE',  ( 4.275831445896959482E-31, 1.000000000000000000, 1.224646799147353207E-16 ) ) ;
#99 =( GEOMETRIC_REPRESENTATION_CONTEXT ( 3 ) GLOBAL_UNCERTAINTY_ASSIGNED_CONTEXT ( ( #124 ) ) GLOBAL_UNIT_ASSIGNED_CONTEXT ( ( #90, #223, #198 ) ) REPRESENTATION_CONTEXT ( 'NONE', 'WORKASPACE' ) );
#100 = CC_DESIGN_APPROVAL ( #186, ( #34 ) ) ;
#101 = DIRECTION ( 'NONE',  ( 4.275831445896958607E-31, 1.000000000000000000, 1.224646799147353207E-16 ) ) ;
#102 = AXIS2_PLACEMENT_3D ( 'NONE', #22, #39, #62 ) ;
#103 = CARTESIAN_POINT ( 'NONE',  ( 1.326762908760390423E-13, 1.199999999999995293, 38.00000000000000000 ) ) ;
#104 = CARTESIAN_POINT ( 'NONE',  ( 1.316288464743861212E-13, 1.499999999999995337, 37.69999999999999574 ) ) ;
#105 = AXIS2_PLACEMENT_3D ( 'NONE', #158, #45, #143 ) ;
#106 = APPROVAL_STATUS ( 'not_yet_approved' ) ;
#107 = PERSON_AND_ORGANIZATION ( #179, #42 ) ;
#108 = EDGE_CURVE ( 'NONE', #32, #32, #25, .T. ) ;
#109 = CIRCLE ( 'NONE', #120, 1.199999999999999956 ) ;
#110 = PERSON_AND_ORGANIZATION ( #179, #42 ) ;
#111 = ORIENTED_EDGE ( 'NONE', *, *, #86, .F. ) ;
#112 = DIRECTION ( 'NONE',  ( -4.478906847412176586E-31, -1.000000000000000000, -1.260700200564540091E-16 ) ) ;
#113 = EDGE_LOOP ( 'NONE', ( #115 ) ) ;
#114 = EDGE_LOOP ( 'NONE', ( #10 ) ) ;
#115 = ORIENTED_EDGE ( 'NONE', *, *, #197, .T. ) ;
#116 = AXIS2_PLACEMENT_3D ( 'NONE', #125, #15, #69 ) ;
#117 = CARTESIAN_POINT ( 'NONE',  ( 1.326762908760390423E-13, 8.998558695971077224E-33, 38.00000000000000000 ) ) ;
#118 = VERTEX_POINT ( 'NONE', #71 ) ;
#119 = DIRECTION ( 'NONE',  ( 0.0000000000000000000, 0.0000000000000000000, 1.000000000000000000 ) ) ;
#120 = AXIS2_PLACEMENT_3D ( 'NONE', #202, #209, #122 ) ;
#121 = ADVANCED_FACE ( 'NONE', ( #175 ), #19, .T. ) ;
#122 = DIRECTION ( 'NONE',  ( 0.0000000000000000000, 1.000000000000000000, 0.0000000000000000000 ) ) ;
#123 = PRODUCT_DEFINITION ( 'UNKNOWN', '', #34, #135 ) ;
#124 = UNCERTAINTY_MEASURE_WITH_UNIT (LENGTH_MEASURE( 1.000000000000000082E-05 ), #90, 'distance_accuracy_value', 'NONE');
#125 = CARTESIAN_POINT ( 'NONE',  ( 1.316288464743861212E-13, -4.616918432785521081E-15, 37.69999999999999574 ) ) ;
#126 = LOCAL_TIME ( 11, 22, 34.00000000000000000, #3 ) ;
#127 = VERTEX_POINT ( 'NONE', #16 ) ;
#128 = CARTESIAN_POINT ( 'NONE',  ( 2.478951750578624367E-14, -8.731519772946173392E-16, 7.099999999999999645 ) ) ;
#129 = PERSON_AND_ORGANIZATION ( #179, #42 ) ;
#130 = PERSON_AND_ORGANIZATION_ROLE ( 'creator' ) ;
#131 = FACE_OUTER_BOUND ( 'NONE', #80, .T. ) ;
#132 = ORIENTED_EDGE ( 'NONE', *, *, #192, .F. ) ;
#133 = APPLICATION_CONTEXT ( 'configuration controlled 3d designs of mechanical parts and assemblies' ) ;
#134 = EDGE_LOOP ( 'NONE', ( #196 ) ) ;
#135 = DESIGN_CONTEXT ( 'detailed design', #133, 'design' ) ;
#136 = DIRECTION ( 'NONE',  ( -4.275831445896958607E-31, -1.000000000000000000, -1.224646799147353207E-16 ) ) ;
#137 = EDGE_LOOP ( 'NONE', ( #132 ) ) ;
#138 = PRODUCT_DEFINITION_SHAPE ( 'NONE', 'NONE',  #123 ) ;
#139 = CC_DESIGN_DATE_AND_TIME_ASSIGNMENT ( #146, #26, ( #189 ) ) ;
#140 = EDGE_CURVE ( 'NONE', #48, #48, #81, .T. ) ;
#141 = CARTESIAN_POINT ( 'NONE',  ( 0.0000000000000000000, 0.0000000000000000000, 0.0000000000000000000 ) ) ;
#142 = DIRECTION ( 'NONE',  ( 0.0000000000000000000, 1.000000000000000000, 0.0000000000000000000 ) ) ;
#143 = DIRECTION ( 'NONE',  ( -5.135813185032644414E-31, -1.000000000000000000, -1.445602896647343601E-16 ) ) ;
#144 = DIRECTION ( 'NONE',  ( -4.275831445896958607E-31, -1.000000000000000000, -1.224646799147353207E-16 ) ) ;
#145 = AXIS2_PLACEMENT_3D ( 'NONE', #141, #119, #162 ) ;
#146 = DATE_AND_TIME ( #53, #70 ) ;
#147 = CONICAL_SURFACE ( 'NONE', #105, 1.499999999999995559, 1.221730476396026388 ) ;
#148 = ADVANCED_FACE ( 'NONE', ( #204, #13 ), #151, .T. ) ;
#149 = CALENDAR_DATE ( 2021, 28, 10 ) ;
#150 = CC_DESIGN_PERSON_AND_ORGANIZATION_ASSIGNMENT ( #161, #1, ( #34 ) ) ;
#151 = CONICAL_SURFACE ( 'NONE', #159, 1.199999999999999956, 0.7853981633974453924 ) ;
#152 = EDGE_LOOP ( 'NONE', ( #111 ) ) ;
#153 = LOCAL_TIME ( 11, 22, 34.00000000000000000, #165 ) ;
#154 = EDGE_LOOP ( 'NONE', ( #65 ) ) ;
#155 = AXIS2_PLACEMENT_3D ( 'NONE', #89, #160, #144 ) ;
#156 = AXIS2_PLACEMENT_3D ( 'NONE', #28, #96, #77 ) ;
#157 = EDGE_LOOP ( 'NONE', ( #66 ) ) ;
#158 = CARTESIAN_POINT ( 'NONE',  ( 1.906192921252232855E-15, -6.686024735685322183E-17, 0.5459553513993090634 ) ) ;
#159 = AXIS2_PLACEMENT_3D ( 'NONE', #190, #33, #44 ) ;
#160 = DIRECTION ( 'NONE',  ( 3.491481338843133355E-15, -1.224646799147353207E-16, 1.000000000000000000 ) ) ;
#161 = PERSON_AND_ORGANIZATION ( #179, #42 ) ;
#162 = DIRECTION ( 'NONE',  ( 1.000000000000000000, 0.0000000000000000000, 0.0000000000000000000 ) ) ;
#163 = DATE_TIME_ROLE ( 'creation_date' ) ;
#164 = AXIS2_PLACEMENT_3D ( 'NONE', #117, #50, #101 ) ;
#165 = COORDINATED_UNIVERSAL_TIME_OFFSET ( 1, 0, .AHEAD. ) ;
#166 = DATE_AND_TIME ( #41, #73 ) ;
#167 = CC_DESIGN_APPROVAL ( #82, ( #123 ) ) ;
#168 = DIRECTION ( 'NONE',  ( 0.0000000000000000000, -1.000000000000000000, 0.0000000000000000000 ) ) ;
#169 = ORIENTED_EDGE ( 'NONE', *, *, #140, .F. ) ;
#170 = AXIS2_PLACEMENT_3D ( 'NONE', #128, #187, #142 ) ;
#171 = PRODUCT_RELATED_PRODUCT_CATEGORY ( 'detail', '', ( #172 ) ) ;
#172 = PRODUCT ( '962866', '962866', '', ( #216 ) ) ;
#173 = AXIS2_PLACEMENT_3D ( 'NONE', #36, #20, #112 ) ;
#174 = FACE_OUTER_BOUND ( 'NONE', #152, .T. ) ;
#175 = FACE_OUTER_BOUND ( 'NONE', #137, .T. ) ;
#176 = CARTESIAN_POINT ( 'NONE',  ( 2.478951750578624367E-14, 0.4299999999999991052, 7.099999999999999645 ) ) ;
#177 = CC_DESIGN_PERSON_AND_ORGANIZATION_ASSIGNMENT ( #107, #194, ( #172 ) ) ;
#178 = APPROVAL_ROLE ( '' ) ;
#179 = PERSON ( 'UNSPECIFIED', 'UNSPECIFIED', 'UNSPECIFIED', ('UNSPECIFIED'), ('UNSPECIFIED'), ('UNSPECIFIED') ) ;
#180 = PERSON_AND_ORGANIZATION ( #179, #42 ) ;
#181 = APPROVAL_STATUS ( 'not_yet_approved' ) ;
#182 = ORIENTED_EDGE ( 'NONE', *, *, #108, .T. ) ;
#183 = FACE_OUTER_BOUND ( 'NONE', #185, .T. ) ;
#184 = LOCAL_TIME ( 11, 22, 34.00000000000000000, #40 ) ;
#185 = EDGE_LOOP ( 'NONE', ( #182 ) ) ;
#186 = APPROVAL ( #76, 'UNSPECIFIED' ) ;
#187 = DIRECTION ( 'NONE',  ( -3.491481338843133355E-15, 1.229791517316362731E-16, -1.000000000000000000 ) ) ;
#188 = ORIENTED_EDGE ( 'NONE', *, *, #86, .T. ) ;
#189 = SECURITY_CLASSIFICATION ( '', '', #214 ) ;
#190 = CARTESIAN_POINT ( 'NONE',  ( 1.326762908760390423E-13, -4.653657836759941941E-15, 38.00000000000000000 ) ) ;
#191 = APPROVAL_DATE_TIME ( #193, #186 ) ;
#192 = EDGE_CURVE ( 'NONE', #203, #203, #56, .T. ) ;
#193 = DATE_AND_TIME ( #149, #184 ) ;
#194 = PERSON_AND_ORGANIZATION_ROLE ( 'design_owner' ) ;
#195 = APPROVAL_PERSON_ORGANIZATION ( #110, #82, #21 ) ;
#196 = ORIENTED_EDGE ( 'NONE', *, *, #46, .F. ) ;
#197 = EDGE_CURVE ( 'NONE', #127, #127, #23, .T. ) ;
#198 =( NAMED_UNIT ( * ) SI_UNIT ( $, .STERADIAN. ) SOLID_ANGLE_UNIT ( ) );
#199 = ADVANCED_FACE ( 'NONE', ( #91, #183 ), #93, .T. ) ;
#200 = DIRECTION ( 'NONE',  ( 3.491481338843133355E-15, -1.224646799147353207E-16, 1.000000000000000000 ) ) ;
#201 = APPLICATION_PROTOCOL_DEFINITION ( 'international standard', 'config_control_design', 1994, #206 ) ;
#202 = CARTESIAN_POINT ( 'NONE',  ( 1.326762908760390423E-13, -4.653657836759941941E-15, 38.00000000000000000 ) ) ;
#203 = VERTEX_POINT ( 'NONE', #68 ) ;
#204 = FACE_OUTER_BOUND ( 'NONE', #114, .T. ) ;
#205 = CARTESIAN_POINT ( 'NONE',  ( 3.873203025854424864E-14, -1.364243930806197247E-15, 11.09329436409868208 ) ) ;
#206 = APPLICATION_CONTEXT ( 'configuration controlled 3d designs of mechanical parts and assemblies' ) ;
#207 = CC_DESIGN_PERSON_AND_ORGANIZATION_ASSIGNMENT ( #37, #2, ( #189 ) ) ;
#208 = CYLINDRICAL_SURFACE ( 'NONE', #156, 0.4299999999999999933 ) ;
#209 = DIRECTION ( 'NONE',  ( -3.491481338843133355E-15, 1.224646799147353207E-16, -1.000000000000000000 ) ) ;
#210 = PERSON_AND_ORGANIZATION ( #179, #42 ) ;
#211 = CLOSED_SHELL ( 'NONE', ( #199, #148, #31, #9, #221 ) ) ;
#212 = CALENDAR_DATE ( 2021, 28, 10 ) ;
#213 = DIRECTION ( 'NONE',  ( -3.491481338843133355E-15, 1.224646799147353207E-16, -1.000000000000000000 ) ) ;
#214 = SECURITY_CLASSIFICATION_LEVEL ( 'unclassified' ) ;
#215 = CC_DESIGN_SECURITY_CLASSIFICATION ( #189, ( #34 ) ) ;
#216 = MECHANICAL_CONTEXT ( 'NONE', #206, 'mechanical' ) ;
#217 = FACE_OUTER_BOUND ( 'NONE', #78, .T. ) ;
#218 = ADVANCED_FACE ( 'NONE', ( #79, #131 ), #208, .T. ) ;
#219 = FACE_OUTER_BOUND ( 'NONE', #154, .T. ) ;
#220 = AXIS2_PLACEMENT_3D ( 'NONE', #205, #47, #17 ) ;
#221 = ADVANCED_FACE ( 'NONE', ( #217 ), #58, .F. ) ;
#222 = ORIENTED_EDGE ( 'NONE', *, *, #140, .T. ) ;
#223 =( NAMED_UNIT ( * ) PLANE_ANGLE_UNIT ( ) SI_UNIT ( $, .RADIAN. ) );
ENDSEC;
END-ISO-10303-21;
