ISO-10303-21;
HEADER;
FILE_DESCRIPTION (( 'STEP AP203' ),
    '1' );
FILE_NAME ('962865.step',
    '2021-10-28T09:22:33',
    ( '' ),
    ( '' ),
    'SwSTEP 2.0',
    'SolidWorks 2019',
    '' );
FILE_SCHEMA (( 'CONFIG_CONTROL_DESIGN' ));
ENDSEC;

DATA;
#1 = CARTESIAN_POINT ( 'NONE',  ( 2.199633243471174014E-14, 1.124819836996389237E-32, 6.299999999999999822 ) ) ;
#2 = EDGE_LOOP ( 'NONE', ( #58 ) ) ;
#3 = DIRECTION ( 'NONE',  ( -4.275831445896958607E-31, -1.000000000000000000, -1.224646799147353207E-16 ) ) ;
#4 = DATE_TIME_ROLE ( 'creation_date' ) ;
#5 = PRODUCT_RELATED_PRODUCT_CATEGORY ( 'detail', '', ( #17 ) ) ;
#6 = EDGE_LOOP ( 'NONE', ( #10 ) ) ;
#7 =( GEOMETRIC_REPRESENTATION_CONTEXT ( 3 ) GLOBAL_UNCERTAINTY_ASSIGNED_CONTEXT ( ( #78 ) ) GLOBAL_UNIT_ASSIGNED_CONTEXT ( ( #117, #28, #142 ) ) REPRESENTATION_CONTEXT ( 'NONE', 'WORKASPACE' ) );
#8 = ORIENTED_EDGE ( 'NONE', *, *, #173, .F. ) ;
#9 = VERTEX_POINT ( 'NONE', #41 ) ;
#10 = ORIENTED_EDGE ( 'NONE', *, *, #135, .F. ) ;
#11 = MANIFOLD_SOLID_BREP ( 'Corps-Déplacer/Copier1[1]', #195 ) ;
#12 = AXIS2_PLACEMENT_3D ( 'NONE', #126, #187, #35 ) ;
#13 = ADVANCED_FACE ( 'NONE', ( #108 ), #169, .T. ) ;
#14 = APPROVAL ( #80, 'UNSPECIFIED' ) ;
#15 = ADVANCED_BREP_SHAPE_REPRESENTATION ( '962865', ( #11, #87, #160 ), #7 ) ;
#16 = ADVANCED_FACE ( 'NONE', ( #222 ), #76, .F. ) ;
#17 = PRODUCT ( '962865', '962865', '', ( #134 ) ) ;
#18 = DIRECTION ( 'NONE',  ( 3.491481338843133355E-15, -1.224646799147353207E-16, 1.000000000000000000 ) ) ;
#19 = DIRECTION ( 'NONE',  ( 0.0000000000000000000, 1.000000000000000000, 0.0000000000000000000 ) ) ;
#20 = PERSON ( 'UNSPECIFIED', 'UNSPECIFIED', 'UNSPECIFIED', ('UNSPECIFIED'), ('UNSPECIFIED'), ('UNSPECIFIED') ) ;
#21 = EDGE_LOOP ( 'NONE', ( #162 ) ) ;
#22 = LOCAL_TIME ( 11, 22, 33.00000000000000000, #51 ) ;
#23 = DIRECTION ( 'NONE',  ( -5.135813185032644414E-31, -1.000000000000000000, -1.445602896647343601E-16 ) ) ;
#24 = AXIS2_PLACEMENT_3D ( 'NONE', #25, #111, #19 ) ;
#25 = CARTESIAN_POINT ( 'NONE',  ( 1.326762908760390423E-13, -4.653657836759941941E-15, 38.00000000000000000 ) ) ;
#26 = APPLICATION_CONTEXT ( 'configuration controlled 3d designs of mechanical parts and assemblies' ) ;
#27 = DATE_AND_TIME ( #81, #143 ) ;
#28 =( NAMED_UNIT ( * ) PLANE_ANGLE_UNIT ( ) SI_UNIT ( $, .RADIAN. ) );
#29 = PERSON_AND_ORGANIZATION_ROLE ( 'design_owner' ) ;
#30 = PRODUCT_DEFINITION_FORMATION_WITH_SPECIFIED_SOURCE ( 'ANY', '', #17, .NOT_KNOWN. ) ;
#31 = APPROVAL_ROLE ( '' ) ;
#32 = AXIS2_PLACEMENT_3D ( 'NONE', #60, #194, #161 ) ;
#33 = LOCAL_TIME ( 11, 22, 33.00000000000000000, #119 ) ;
#34 = FACE_OUTER_BOUND ( 'NONE', #131, .T. ) ;
#35 = DIRECTION ( 'NONE',  ( 0.0000000000000000000, -1.000000000000000000, 0.0000000000000000000 ) ) ;
#36 = DIRECTION ( 'NONE',  ( 3.491481338843133355E-15, -1.224646799147353207E-16, 1.000000000000000000 ) ) ;
#37 = CARTESIAN_POINT ( 'NONE',  ( 1.316288464743861212E-13, -4.616918432785521081E-15, 37.69999999999999574 ) ) ;
#38 = CLOSED_SHELL ( 'NONE', ( #13, #74, #127 ) ) ;
#39 = COORDINATED_UNIVERSAL_TIME_OFFSET ( 1, 0, .AHEAD. ) ;
#40 = EDGE_LOOP ( 'NONE', ( #145 ) ) ;
#41 = CARTESIAN_POINT ( 'NONE',  ( 1.326762908760390423E-13, 1.199999999999995293, 38.00000000000000000 ) ) ;
#42 = APPROVAL_PERSON_ORGANIZATION ( #45, #203, #158 ) ;
#43 = CALENDAR_DATE ( 2021, 28, 10 ) ;
#44 = ORIENTED_EDGE ( 'NONE', *, *, #202, .T. ) ;
#45 = PERSON_AND_ORGANIZATION ( #20, #174 ) ;
#46 = VERTEX_POINT ( 'NONE', #176 ) ;
#47 = PERSON_AND_ORGANIZATION ( #20, #174 ) ;
#48 = CIRCLE ( 'NONE', #105, 0.4249999999999999889 ) ;
#49 = DESIGN_CONTEXT ( 'detailed design', #26, 'design' ) ;
#50 = ADVANCED_FACE ( 'NONE', ( #129 ), #172, .F. ) ;
#51 = COORDINATED_UNIVERSAL_TIME_OFFSET ( 1, 0, .AHEAD. ) ;
#52 = EDGE_LOOP ( 'NONE', ( #61 ) ) ;
#53 = CARTESIAN_POINT ( 'NONE',  ( 5.400879943548007553E-16, -1.894373675110845948E-17, 0.1546873495631379547 ) ) ;
#54 = FACE_OUTER_BOUND ( 'NONE', #21, .T. ) ;
#55 = DIRECTION ( 'NONE',  ( 0.0000000000000000000, 1.000000000000000000, 0.0000000000000000000 ) ) ;
#56 = DIRECTION ( 'NONE',  ( -3.491481338843133355E-15, 1.229791517316362731E-16, -1.000000000000000000 ) ) ;
#57 = CC_DESIGN_PERSON_AND_ORGANIZATION_ASSIGNMENT ( #85, #200, ( #30 ) ) ;
#58 = ORIENTED_EDGE ( 'NONE', *, *, #135, .T. ) ;
#59 = CIRCLE ( 'NONE', #146, 1.499999999999999778 ) ;
#60 = CARTESIAN_POINT ( 'NONE',  ( 3.600399711622095023E-14, -1.268155431633559275E-15, 10.31195461813652692 ) ) ;
#61 = ORIENTED_EDGE ( 'NONE', *, *, #118, .F. ) ;
#62 = APPROVAL_ROLE ( '' ) ;
#63 = ORIENTED_EDGE ( 'NONE', *, *, #211, .F. ) ;
#64 = CC_DESIGN_APPROVAL ( #203, ( #199 ) ) ;
#65 = PERSON_AND_ORGANIZATION ( #20, #174 ) ;
#66 = CIRCLE ( 'NONE', #137, 0.4249999999999999889 ) ;
#67 = APPLICATION_PROTOCOL_DEFINITION ( 'international standard', 'config_control_design', 1994, #26 ) ;
#68 = CALENDAR_DATE ( 2021, 28, 10 ) ;
#69 = DATE_AND_TIME ( #197, #33 ) ;
#70 = ADVANCED_FACE ( 'NONE', ( #93, #128 ), #184, .T. ) ;
#71 = DIRECTION ( 'NONE',  ( 4.275831445896959482E-31, 1.000000000000000000, 1.224646799147353207E-16 ) ) ;
#72 = FACE_OUTER_BOUND ( 'NONE', #213, .T. ) ;
#73 = EDGE_LOOP ( 'NONE', ( #44 ) ) ;
#74 = ADVANCED_FACE ( 'NONE', ( #140, #185 ), #92, .T. ) ;
#75 = CIRCLE ( 'NONE', #198, 1.199999999999999956 ) ;
#76 = PLANE ( 'NONE',  #99 ) ;
#77 = EDGE_LOOP ( 'NONE', ( #113 ) ) ;
#78 = UNCERTAINTY_MEASURE_WITH_UNIT (LENGTH_MEASURE( 1.000000000000000082E-05 ), #117, 'distance_accuracy_value', 'NONE');
#79 = APPROVAL_PERSON_ORGANIZATION ( #95, #14, #62 ) ;
#80 = APPROVAL_STATUS ( 'not_yet_approved' ) ;
#81 = CALENDAR_DATE ( 2021, 28, 10 ) ;
#82 = ORIENTED_EDGE ( 'NONE', *, *, #86, .T. ) ;
#83 = VERTEX_POINT ( 'NONE', #144 ) ;
#84 = AXIS2_PLACEMENT_3D ( 'NONE', #110, #207, #204 ) ;
#85 = PERSON_AND_ORGANIZATION ( #20, #174 ) ;
#86 = EDGE_CURVE ( 'NONE', #116, #116, #159, .T. ) ;
#87 = MANIFOLD_SOLID_BREP ( 'Corps-Déplacer/Copier1[2]', #38 ) ;
#88 = CC_DESIGN_PERSON_AND_ORGANIZATION_ASSIGNMENT ( #65, #112, ( #199 ) ) ;
#89 = DIRECTION ( 'NONE',  ( -3.491481338843133355E-15, 1.224646799147353207E-16, -1.000000000000000000 ) ) ;
#90 = AXIS2_PLACEMENT_3D ( 'NONE', #152, #18, #23 ) ;
#91 = PRODUCT_DEFINITION_SHAPE ( 'NONE', 'NONE',  #199 ) ;
#92 = CYLINDRICAL_SURFACE ( 'NONE', #84, 0.4249999999999999889 ) ;
#93 = FACE_OUTER_BOUND ( 'NONE', #6, .T. ) ;
#94 = DIRECTION ( 'NONE',  ( 3.491481338843133355E-15, -1.224646799147353207E-16, 1.000000000000000000 ) ) ;
#95 = PERSON_AND_ORGANIZATION ( #20, #174 ) ;
#96 = ADVANCED_FACE ( 'NONE', ( #34, #157 ), #206, .T. ) ;
#97 = CARTESIAN_POINT ( 'NONE',  ( 0.0000000000000000000, 0.0000000000000000000, 0.0000000000000000000 ) ) ;
#98 = EDGE_LOOP ( 'NONE', ( #8 ) ) ;
#99 = AXIS2_PLACEMENT_3D ( 'NONE', #107, #138, #122 ) ;
#100 = PERSON_AND_ORGANIZATION ( #20, #174 ) ;
#101 = EDGE_LOOP ( 'NONE', ( #82 ) ) ;
#102 = APPLICATION_CONTEXT ( 'configuration controlled 3d designs of mechanical parts and assemblies' ) ;
#103 = DIRECTION ( 'NONE',  ( 1.000000000000000000, 0.0000000000000000000, 0.0000000000000000000 ) ) ;
#104 = VERTEX_POINT ( 'NONE', #163 ) ;
#105 = AXIS2_PLACEMENT_3D ( 'NONE', #53, #123, #186 ) ;
#106 = AXIS2_PLACEMENT_3D ( 'NONE', #1, #94, #156 ) ;
#107 = CARTESIAN_POINT ( 'NONE',  ( 1.326762908760390423E-13, 8.998558695971077224E-33, 38.00000000000000000 ) ) ;
#108 = FACE_OUTER_BOUND ( 'NONE', #77, .T. ) ;
#109 = CARTESIAN_POINT ( 'NONE',  ( 1.326762908760390423E-13, -4.653657836759941941E-15, 38.00000000000000000 ) ) ;
#110 = CARTESIAN_POINT ( 'NONE',  ( 0.0000000000000000000, 0.0000000000000000000, 0.0000000000000000000 ) ) ;
#111 = DIRECTION ( 'NONE',  ( -3.491481338843133355E-15, 1.224646799147353207E-16, -1.000000000000000000 ) ) ;
#112 = PERSON_AND_ORGANIZATION_ROLE ( 'creator' ) ;
#113 = ORIENTED_EDGE ( 'NONE', *, *, #86, .F. ) ;
#114 = VERTEX_POINT ( 'NONE', #147 ) ;
#115 = APPLICATION_PROTOCOL_DEFINITION ( 'international standard', 'config_control_design', 1994, #102 ) ;
#116 = VERTEX_POINT ( 'NONE', #149 ) ;
#117 =( LENGTH_UNIT ( ) NAMED_UNIT ( * ) SI_UNIT ( .MILLI., .METRE. ) );
#118 = EDGE_CURVE ( 'NONE', #46, #46, #66, .T. ) ;
#119 = COORDINATED_UNIVERSAL_TIME_OFFSET ( 1, 0, .AHEAD. ) ;
#120 = APPROVAL_STATUS ( 'not_yet_approved' ) ;
#121 = LOCAL_TIME ( 11, 22, 33.00000000000000000, #193 ) ;
#122 = DIRECTION ( 'NONE',  ( 4.275831445896958607E-31, 1.000000000000000000, 1.224646799147353207E-16 ) ) ;
#123 = DIRECTION ( 'NONE',  ( -3.491481338843133355E-15, 1.224646799147353207E-16, -1.000000000000000000 ) ) ;
#124 = CC_DESIGN_DATE_AND_TIME_ASSIGNMENT ( #27, #4, ( #199 ) ) ;
#125 = CC_DESIGN_DATE_AND_TIME_ASSIGNMENT ( #69, #217, ( #183 ) ) ;
#126 = CARTESIAN_POINT ( 'NONE',  ( 3.600399711622095023E-14, -1.268155431633559275E-15, 10.31195461813652692 ) ) ;
#127 = ADVANCED_FACE ( 'NONE', ( #72 ), #180, .T. ) ;
#128 = FACE_BOUND ( 'NONE', #73, .T. ) ;
#129 = FACE_OUTER_BOUND ( 'NONE', #40, .T. ) ;
#130 = COORDINATED_UNIVERSAL_TIME_OFFSET ( 1, 0, .AHEAD. ) ;
#131 = EDGE_LOOP ( 'NONE', ( #63 ) ) ;
#132 = LOCAL_TIME ( 11, 22, 33.00000000000000000, #130 ) ;
#133 = PERSON_AND_ORGANIZATION_ROLE ( 'creator' ) ;
#134 = MECHANICAL_CONTEXT ( 'NONE', #102, 'mechanical' ) ;
#135 = EDGE_CURVE ( 'NONE', #104, #104, #59, .T. ) ;
#136 = SHAPE_DEFINITION_REPRESENTATION ( #91, #15 ) ;
#137 = AXIS2_PLACEMENT_3D ( 'NONE', #141, #56, #55 ) ;
#138 = DIRECTION ( 'NONE',  ( -3.491481338843133355E-15, 1.224646799147353207E-16, -1.000000000000000000 ) ) ;
#139 = FACE_BOUND ( 'NONE', #52, .T. ) ;
#140 = FACE_OUTER_BOUND ( 'NONE', #101, .T. ) ;
#141 = CARTESIAN_POINT ( 'NONE',  ( 2.199633243471174014E-14, -7.747686559093085377E-16, 6.299999999999999822 ) ) ;
#142 =( NAMED_UNIT ( * ) SI_UNIT ( $, .STERADIAN. ) SOLID_ANGLE_UNIT ( ) );
#143 = LOCAL_TIME ( 11, 22, 33.00000000000000000, #39 ) ;
#144 = CARTESIAN_POINT ( 'NONE',  ( 5.400879943548005581E-16, -0.4249999999999999889, 0.1546873495631378992 ) ) ;
#145 = ORIENTED_EDGE ( 'NONE', *, *, #118, .T. ) ;
#146 = AXIS2_PLACEMENT_3D ( 'NONE', #37, #89, #205 ) ;
#147 = CARTESIAN_POINT ( 'NONE',  ( 3.600399711622095023E-14, 1.499999999999997113, 10.31195461813652692 ) ) ;
#148 = PERSON_AND_ORGANIZATION ( #20, #174 ) ;
#149 = CARTESIAN_POINT ( 'NONE',  ( 2.199633243471174014E-14, 0.4249999999999992117, 6.299999999999999822 ) ) ;
#150 = SECURITY_CLASSIFICATION_LEVEL ( 'unclassified' ) ;
#151 = CC_DESIGN_APPROVAL ( #14, ( #30 ) ) ;
#152 = CARTESIAN_POINT ( 'NONE',  ( 1.906192921252232855E-15, -6.686024735685322183E-17, 0.5459553513993090634 ) ) ;
#153 = DIRECTION ( 'NONE',  ( -3.491481338843133355E-15, 1.224646799147353207E-16, -1.000000000000000000 ) ) ;
#154 = CARTESIAN_POINT ( 'NONE',  ( 2.199633243471174014E-14, 1.124819836996389237E-32, 6.299999999999999822 ) ) ;
#155 = CC_DESIGN_APPROVAL ( #175, ( #183 ) ) ;
#156 = DIRECTION ( 'NONE',  ( -4.275831445896958607E-31, -1.000000000000000000, -1.224646799147353207E-16 ) ) ;
#157 = FACE_OUTER_BOUND ( 'NONE', #2, .T. ) ;
#158 = APPROVAL_ROLE ( '' ) ;
#159 = CIRCLE ( 'NONE', #164, 0.4249999999999999889 ) ;
#160 = AXIS2_PLACEMENT_3D ( 'NONE', #97, #212, #103 ) ;
#161 = DIRECTION ( 'NONE',  ( 0.0000000000000000000, 1.000000000000000000, 0.0000000000000000000 ) ) ;
#162 = ORIENTED_EDGE ( 'NONE', *, *, #211, .T. ) ;
#163 = CARTESIAN_POINT ( 'NONE',  ( 1.316288464743861212E-13, 1.499999999999995337, 37.69999999999999574 ) ) ;
#164 = AXIS2_PLACEMENT_3D ( 'NONE', #171, #208, #188 ) ;
#165 = CONICAL_SURFACE ( 'NONE', #12, 1.499999999999998446, 0.2617993877991501295 ) ;
#166 = PERSON_AND_ORGANIZATION_ROLE ( 'classification_officer' ) ;
#167 = APPROVAL_PERSON_ORGANIZATION ( #216, #175, #31 ) ;
#168 = CARTESIAN_POINT ( 'NONE',  ( 0.0000000000000000000, 0.0000000000000000000, 0.0000000000000000000 ) ) ;
#169 = PLANE ( 'NONE',  #220 ) ;
#170 = DIRECTION ( 'NONE',  ( -3.491481338843133355E-15, 1.224646799147353207E-16, -1.000000000000000000 ) ) ;
#171 = CARTESIAN_POINT ( 'NONE',  ( 2.199633243471174014E-14, -7.747686559093085377E-16, 6.299999999999999822 ) ) ;
#172 = PLANE ( 'NONE',  #106 ) ;
#173 = EDGE_CURVE ( 'NONE', #83, #83, #48, .T. ) ;
#174 = ORGANIZATION ( 'UNSPECIFIED', 'UNSPECIFIED', '' ) ;
#175 = APPROVAL ( #120, 'UNSPECIFIED' ) ;
#176 = CARTESIAN_POINT ( 'NONE',  ( 2.199633243471174014E-14, 0.4249999999999992117, 6.299999999999999822 ) ) ;
#177 = APPROVAL_DATE_TIME ( #215, #14 ) ;
#178 = APPROVAL_STATUS ( 'not_yet_approved' ) ;
#179 = ADVANCED_FACE ( 'NONE', ( #139, #54 ), #165, .T. ) ;
#180 = CONICAL_SURFACE ( 'NONE', #90, 1.499999999999995559, 1.221730476396026388 ) ;
#181 = CIRCLE ( 'NONE', #32, 1.499999999999998446 ) ;
#182 = DATE_AND_TIME ( #68, #22 ) ;
#183 = SECURITY_CLASSIFICATION ( '', '', #150 ) ;
#184 = CONICAL_SURFACE ( 'NONE', #24, 1.199999999999999956, 0.7853981633974453924 ) ;
#185 = FACE_OUTER_BOUND ( 'NONE', #98, .T. ) ;
#186 = DIRECTION ( 'NONE',  ( -4.531599869146437404E-31, -1.000000000000000000, -1.275531967630005245E-16 ) ) ;
#187 = DIRECTION ( 'NONE',  ( 3.491481338843133355E-15, -1.229791517316362731E-16, 1.000000000000000000 ) ) ;
#188 = DIRECTION ( 'NONE',  ( 0.0000000000000000000, 1.000000000000000000, 0.0000000000000000000 ) ) ;
#189 = DATE_AND_TIME ( #214, #132 ) ;
#190 = AXIS2_PLACEMENT_3D ( 'NONE', #168, #153, #71 ) ;
#191 = CC_DESIGN_PERSON_AND_ORGANIZATION_ASSIGNMENT ( #100, #133, ( #30 ) ) ;
#192 = ORIENTED_EDGE ( 'NONE', *, *, #202, .F. ) ;
#193 = COORDINATED_UNIVERSAL_TIME_OFFSET ( 1, 0, .AHEAD. ) ;
#194 = DIRECTION ( 'NONE',  ( -3.491481338843133355E-15, 1.229791517316362731E-16, -1.000000000000000000 ) ) ;
#195 = CLOSED_SHELL ( 'NONE', ( #96, #70, #16, #179, #50 ) ) ;
#196 = APPROVAL_DATE_TIME ( #189, #203 ) ;
#197 = CALENDAR_DATE ( 2021, 28, 10 ) ;
#198 = AXIS2_PLACEMENT_3D ( 'NONE', #109, #170, #223 ) ;
#199 = PRODUCT_DEFINITION ( 'UNKNOWN', '', #30, #49 ) ;
#200 = PERSON_AND_ORGANIZATION_ROLE ( 'design_supplier' ) ;
#201 = CC_DESIGN_SECURITY_CLASSIFICATION ( #183, ( #30 ) ) ;
#202 = EDGE_CURVE ( 'NONE', #9, #9, #75, .T. ) ;
#203 = APPROVAL ( #178, 'UNSPECIFIED' ) ;
#204 = DIRECTION ( 'NONE',  ( 4.293794133377662246E-31, 1.000000000000000000, 1.229791517316362731E-16 ) ) ;
#205 = DIRECTION ( 'NONE',  ( 0.0000000000000000000, 1.000000000000000000, 0.0000000000000000000 ) ) ;
#206 = CYLINDRICAL_SURFACE ( 'NONE', #190, 1.499999999999998002 ) ;
#207 = DIRECTION ( 'NONE',  ( -3.491481338843133355E-15, 1.229791517316362731E-16, -1.000000000000000000 ) ) ;
#208 = DIRECTION ( 'NONE',  ( -3.491481338843133355E-15, 1.229791517316362731E-16, -1.000000000000000000 ) ) ;
#209 = CC_DESIGN_PERSON_AND_ORGANIZATION_ASSIGNMENT ( #47, #166, ( #183 ) ) ;
#210 = EDGE_LOOP ( 'NONE', ( #192 ) ) ;
#211 = EDGE_CURVE ( 'NONE', #114, #114, #181, .T. ) ;
#212 = DIRECTION ( 'NONE',  ( 0.0000000000000000000, 0.0000000000000000000, 1.000000000000000000 ) ) ;
#213 = EDGE_LOOP ( 'NONE', ( #221 ) ) ;
#214 = CALENDAR_DATE ( 2021, 28, 10 ) ;
#215 = DATE_AND_TIME ( #43, #121 ) ;
#216 = PERSON_AND_ORGANIZATION ( #20, #174 ) ;
#217 = DATE_TIME_ROLE ( 'classification_date' ) ;
#218 = CC_DESIGN_PERSON_AND_ORGANIZATION_ASSIGNMENT ( #148, #29, ( #17 ) ) ;
#219 = APPROVAL_DATE_TIME ( #182, #175 ) ;
#220 = AXIS2_PLACEMENT_3D ( 'NONE', #154, #36, #3 ) ;
#221 = ORIENTED_EDGE ( 'NONE', *, *, #173, .T. ) ;
#222 = FACE_OUTER_BOUND ( 'NONE', #210, .T. ) ;
#223 = DIRECTION ( 'NONE',  ( 0.0000000000000000000, 1.000000000000000000, 0.0000000000000000000 ) ) ;
ENDSEC;
END-ISO-10303-21;
