ISO-10303-21;
HEADER;
FILE_DESCRIPTION (( 'STEP AP203' ),
    '1' );
FILE_NAME ('962864.step',
    '2021-10-28T09:22:32',
    ( '' ),
    ( '' ),
    'SwSTEP 2.0',
    'SolidWorks 2019',
    '' );
FILE_SCHEMA (( 'CONFIG_CONTROL_DESIGN' ));
ENDSEC;

DATA;
#1 = CARTESIAN_POINT ( 'NONE',  ( 0.0000000000000000000, 0.0000000000000000000, 0.0000000000000000000 ) ) ;
#2 = EDGE_LOOP ( 'NONE', ( #142 ) ) ;
#3 = CARTESIAN_POINT ( 'NONE',  ( 1.326762908760390423E-13, -4.653657836759941941E-15, 38.00000000000000000 ) ) ;
#4 = CC_DESIGN_SECURITY_CLASSIFICATION ( #191, ( #97 ) ) ;
#5 = APPROVAL_DATE_TIME ( #117, #80 ) ;
#6 = CARTESIAN_POINT ( 'NONE',  ( 2.199633243471174014E-14, 0.4199999999999992073, 6.299999999999999822 ) ) ;
#7 = COORDINATED_UNIVERSAL_TIME_OFFSET ( 1, 0, .AHEAD. ) ;
#8 = PERSON_AND_ORGANIZATION ( #209, #124 ) ;
#9 = DIRECTION ( 'NONE',  ( 4.275831445896959482E-31, 1.000000000000000000, 1.224646799147353207E-16 ) ) ;
#10 = EDGE_LOOP ( 'NONE', ( #136 ) ) ;
#11 = DIRECTION ( 'NONE',  ( -4.275831445896958607E-31, -1.000000000000000000, -1.224646799147353207E-16 ) ) ;
#12 = FACE_OUTER_BOUND ( 'NONE', #32, .T. ) ;
#13 = APPROVAL_PERSON_ORGANIZATION ( #8, #155, #70 ) ;
#14 = CYLINDRICAL_SURFACE ( 'NONE', #107, 0.4199999999999999845 ) ;
#15 = DIRECTION ( 'NONE',  ( 0.0000000000000000000, -1.000000000000000000, 0.0000000000000000000 ) ) ;
#16 = APPROVAL_ROLE ( '' ) ;
#17 = CARTESIAN_POINT ( 'NONE',  ( 3.606914904497215850E-14, 1.499999999999997113, 10.33061487217437069 ) ) ;
#18 = VERTEX_POINT ( 'NONE', #163 ) ;
#19 = APPROVAL_ROLE ( '' ) ;
#20 = AXIS2_PLACEMENT_3D ( 'NONE', #41, #42, #26 ) ;
#21 = CALENDAR_DATE ( 2021, 28, 10 ) ;
#22 = PERSON_AND_ORGANIZATION ( #209, #124 ) ;
#23 = APPROVAL_PERSON_ORGANIZATION ( #138, #80, #16 ) ;
#24 = DIRECTION ( 'NONE',  ( -3.491481338843133355E-15, 1.224646799147353207E-16, -1.000000000000000000 ) ) ;
#25 = CARTESIAN_POINT ( 'NONE',  ( 5.337340179506264025E-16, -1.872086925991894008E-17, 0.1528674983918068830 ) ) ;
#26 = DIRECTION ( 'NONE',  ( 0.0000000000000000000, 1.000000000000000000, 0.0000000000000000000 ) ) ;
#27 = FACE_BOUND ( 'NONE', #118, .T. ) ;
#28 = PRODUCT_DEFINITION ( 'UNKNOWN', '', #97, #147 ) ;
#29 = ORIENTED_EDGE ( 'NONE', *, *, #130, .F. ) ;
#30 = CIRCLE ( 'NONE', #20, 1.499999999999998446 ) ;
#31 = ORIENTED_EDGE ( 'NONE', *, *, #159, .T. ) ;
#32 = EDGE_LOOP ( 'NONE', ( #215 ) ) ;
#33 = CARTESIAN_POINT ( 'NONE',  ( 0.0000000000000000000, 0.0000000000000000000, 0.0000000000000000000 ) ) ;
#34 = CIRCLE ( 'NONE', #183, 0.4199999999999999845 ) ;
#35 = CARTESIAN_POINT ( 'NONE',  ( 2.199633243471174014E-14, 0.4199999999999992073, 6.299999999999999822 ) ) ;
#36 = CIRCLE ( 'NONE', #82, 1.499999999999999778 ) ;
#37 = SECURITY_CLASSIFICATION_LEVEL ( 'unclassified' ) ;
#38 = COORDINATED_UNIVERSAL_TIME_OFFSET ( 1, 0, .AHEAD. ) ;
#39 = EDGE_CURVE ( 'NONE', #87, #87, #91, .T. ) ;
#40 = DIRECTION ( 'NONE',  ( -4.585547486636276299E-31, -1.000000000000000000, -1.290716872006553027E-16 ) ) ;
#41 = CARTESIAN_POINT ( 'NONE',  ( 3.606914904497215850E-14, -1.270450253846230301E-15, 10.33061487217437069 ) ) ;
#42 = DIRECTION ( 'NONE',  ( -3.491481338843133355E-15, 1.229791517316362731E-16, -1.000000000000000000 ) ) ;
#43 = AXIS2_PLACEMENT_3D ( 'NONE', #189, #24, #108 ) ;
#44 = FACE_OUTER_BOUND ( 'NONE', #196, .T. ) ;
#45 = CC_DESIGN_PERSON_AND_ORGANIZATION_ASSIGNMENT ( #22, #126, ( #191 ) ) ;
#46 = EDGE_LOOP ( 'NONE', ( #65 ) ) ;
#47 = AXIS2_PLACEMENT_3D ( 'NONE', #77, #132, #94 ) ;
#48 = CC_DESIGN_APPROVAL ( #80, ( #28 ) ) ;
#49 = VERTEX_POINT ( 'NONE', #35 ) ;
#50 = DATE_TIME_ROLE ( 'creation_date' ) ;
#51 = LOCAL_TIME ( 11, 22, 32.00000000000000000, #85 ) ;
#52 = DIRECTION ( 'NONE',  ( 0.0000000000000000000, 0.0000000000000000000, 1.000000000000000000 ) ) ;
#53 = PERSON_AND_ORGANIZATION ( #209, #124 ) ;
#54 = DATE_AND_TIME ( #90, #112 ) ;
#55 = FACE_OUTER_BOUND ( 'NONE', #158, .T. ) ;
#56 = FACE_OUTER_BOUND ( 'NONE', #102, .T. ) ;
#57 = APPLICATION_CONTEXT ( 'configuration controlled 3d designs of mechanical parts and assemblies' ) ;
#58 = CARTESIAN_POINT ( 'NONE',  ( 1.906192921252232855E-15, -6.686024735685322183E-17, 0.5459553513993090634 ) ) ;
#59 = AXIS2_PLACEMENT_3D ( 'NONE', #58, #134, #208 ) ;
#60 = ADVANCED_FACE ( 'NONE', ( #44, #55 ), #96, .T. ) ;
#61 =( LENGTH_UNIT ( ) NAMED_UNIT ( * ) SI_UNIT ( .MILLI., .METRE. ) );
#62 = FACE_OUTER_BOUND ( 'NONE', #219, .T. ) ;
#63 = CC_DESIGN_APPROVAL ( #88, ( #97 ) ) ;
#64 = PERSON_AND_ORGANIZATION ( #209, #124 ) ;
#65 = ORIENTED_EDGE ( 'NONE', *, *, #149, .F. ) ;
#66 = DATE_AND_TIME ( #86, #187 ) ;
#67 = CLOSED_SHELL ( 'NONE', ( #60, #210, #93, #201, #184 ) ) ;
#68 = AXIS2_PLACEMENT_3D ( 'NONE', #223, #171, #11 ) ;
#69 = DATE_TIME_ROLE ( 'classification_date' ) ;
#70 = APPROVAL_ROLE ( '' ) ;
#71 = AXIS2_PLACEMENT_3D ( 'NONE', #131, #205, #211 ) ;
#72 = APPLICATION_CONTEXT ( 'configuration controlled 3d designs of mechanical parts and assemblies' ) ;
#73 = PERSON_AND_ORGANIZATION ( #209, #124 ) ;
#74 = ADVANCED_BREP_SHAPE_REPRESENTATION ( '962864', ( #156, #75, #150 ), #173 ) ;
#75 = MANIFOLD_SOLID_BREP ( 'Corps-Déplacer/Copier1[2]', #218 ) ;
#76 = CC_DESIGN_PERSON_AND_ORGANIZATION_ASSIGNMENT ( #53, #185, ( #97 ) ) ;
#77 = CARTESIAN_POINT ( 'NONE',  ( 1.326762908760390423E-13, 8.998558695971077224E-33, 38.00000000000000000 ) ) ;
#78 = CIRCLE ( 'NONE', #153, 0.4199999999999999845 ) ;
#79 = CARTESIAN_POINT ( 'NONE',  ( 1.316288464743861212E-13, -4.616918432785521081E-15, 37.69999999999999574 ) ) ;
#80 = APPROVAL ( #212, 'UNSPECIFIED' ) ;
#81 = DIRECTION ( 'NONE',  ( 0.0000000000000000000, 1.000000000000000000, 0.0000000000000000000 ) ) ;
#82 = AXIS2_PLACEMENT_3D ( 'NONE', #79, #206, #192 ) ;
#83 = DIRECTION ( 'NONE',  ( -3.491481338843133355E-15, 1.229791517316362731E-16, -1.000000000000000000 ) ) ;
#84 = ORIENTED_EDGE ( 'NONE', *, *, #159, .F. ) ;
#85 = COORDINATED_UNIVERSAL_TIME_OFFSET ( 1, 0, .AHEAD. ) ;
#86 = CALENDAR_DATE ( 2021, 28, 10 ) ;
#87 = VERTEX_POINT ( 'NONE', #175 ) ;
#88 = APPROVAL ( #105, 'UNSPECIFIED' ) ;
#89 = CONICAL_SURFACE ( 'NONE', #59, 1.499999999999995559, 1.221730476396026388 ) ;
#90 = CALENDAR_DATE ( 2021, 28, 10 ) ;
#91 = CIRCLE ( 'NONE', #43, 1.199999999999999956 ) ;
#92 = AXIS2_PLACEMENT_3D ( 'NONE', #154, #160, #15 ) ;
#93 = ADVANCED_FACE ( 'NONE', ( #56 ), #151, .F. ) ;
#94 = DIRECTION ( 'NONE',  ( 4.275831445896958607E-31, 1.000000000000000000, 1.224646799147353207E-16 ) ) ;
#95 = CC_DESIGN_APPROVAL ( #155, ( #191 ) ) ;
#96 = CYLINDRICAL_SURFACE ( 'NONE', #111, 1.499999999999998002 ) ;
#97 = PRODUCT_DEFINITION_FORMATION_WITH_SPECIFIED_SOURCE ( 'ANY', '', #109, .NOT_KNOWN. ) ;
#98 = FACE_OUTER_BOUND ( 'NONE', #213, .T. ) ;
#99 = PLANE ( 'NONE',  #68 ) ;
#100 = DIRECTION ( 'NONE',  ( -3.491481338843133355E-15, 1.229791517316362731E-16, -1.000000000000000000 ) ) ;
#101 = VERTEX_POINT ( 'NONE', #6 ) ;
#102 = EDGE_LOOP ( 'NONE', ( #195 ) ) ;
#103 = APPLICATION_PROTOCOL_DEFINITION ( 'international standard', 'config_control_design', 1994, #57 ) ;
#104 = CC_DESIGN_DATE_AND_TIME_ASSIGNMENT ( #66, #50, ( #28 ) ) ;
#105 = APPROVAL_STATUS ( 'not_yet_approved' ) ;
#106 = ADVANCED_FACE ( 'NONE', ( #116 ), #168, .T. ) ;
#107 = AXIS2_PLACEMENT_3D ( 'NONE', #1, #110, #190 ) ;
#108 = DIRECTION ( 'NONE',  ( 0.0000000000000000000, 1.000000000000000000, 0.0000000000000000000 ) ) ;
#109 = PRODUCT ( '962864', '962864', '', ( #181 ) ) ;
#110 = DIRECTION ( 'NONE',  ( -3.491481338843133355E-15, 1.229791517316362731E-16, -1.000000000000000000 ) ) ;
#111 = AXIS2_PLACEMENT_3D ( 'NONE', #204, #114, #9 ) ;
#112 = LOCAL_TIME ( 11, 22, 32.00000000000000000, #7 ) ;
#113 = DIRECTION ( 'NONE',  ( 0.0000000000000000000, 1.000000000000000000, 0.0000000000000000000 ) ) ;
#114 = DIRECTION ( 'NONE',  ( -3.491481338843133355E-15, 1.224646799147353207E-16, -1.000000000000000000 ) ) ;
#115 = CC_DESIGN_PERSON_AND_ORGANIZATION_ASSIGNMENT ( #64, #143, ( #28 ) ) ;
#116 = FACE_OUTER_BOUND ( 'NONE', #157, .T. ) ;
#117 = DATE_AND_TIME ( #179, #51 ) ;
#118 = EDGE_LOOP ( 'NONE', ( #137 ) ) ;
#119 = VERTEX_POINT ( 'NONE', #198 ) ;
#120 = EDGE_CURVE ( 'NONE', #49, #49, #34, .T. ) ;
#121 = COORDINATED_UNIVERSAL_TIME_OFFSET ( 1, 0, .AHEAD. ) ;
#122 = CC_DESIGN_PERSON_AND_ORGANIZATION_ASSIGNMENT ( #140, #164, ( #109 ) ) ;
#123 = PERSON_AND_ORGANIZATION ( #209, #124 ) ;
#124 = ORGANIZATION ( 'UNSPECIFIED', 'UNSPECIFIED', '' ) ;
#125 = FACE_BOUND ( 'NONE', #2, .T. ) ;
#126 = PERSON_AND_ORGANIZATION_ROLE ( 'classification_officer' ) ;
#127 = DATE_AND_TIME ( #167, #202 ) ;
#128 = UNCERTAINTY_MEASURE_WITH_UNIT (LENGTH_MEASURE( 1.000000000000000082E-05 ), #61, 'distance_accuracy_value', 'NONE');
#129 = CONICAL_SURFACE ( 'NONE', #133, 1.199999999999999956, 0.7853981633974453924 ) ;
#130 = EDGE_CURVE ( 'NONE', #162, #162, #30, .T. ) ;
#131 = CARTESIAN_POINT ( 'NONE',  ( 2.199633243471174014E-14, 1.124819836996389237E-32, 6.299999999999999822 ) ) ;
#132 = DIRECTION ( 'NONE',  ( -3.491481338843133355E-15, 1.224646799147353207E-16, -1.000000000000000000 ) ) ;
#133 = AXIS2_PLACEMENT_3D ( 'NONE', #3, #180, #216 ) ;
#134 = DIRECTION ( 'NONE',  ( 3.491481338843133355E-15, -1.224646799147353207E-16, 1.000000000000000000 ) ) ;
#135 = EDGE_CURVE ( 'NONE', #101, #101, #78, .T. ) ;
#136 = ORIENTED_EDGE ( 'NONE', *, *, #149, .T. ) ;
#137 = ORIENTED_EDGE ( 'NONE', *, *, #135, .F. ) ;
#138 = PERSON_AND_ORGANIZATION ( #209, #124 ) ;
#139 = ORIENTED_EDGE ( 'NONE', *, *, #120, .F. ) ;
#140 = PERSON_AND_ORGANIZATION ( #209, #124 ) ;
#141 = ADVANCED_FACE ( 'NONE', ( #172, #174 ), #14, .T. ) ;
#142 = ORIENTED_EDGE ( 'NONE', *, *, #39, .T. ) ;
#143 = PERSON_AND_ORGANIZATION_ROLE ( 'creator' ) ;
#144 =( NAMED_UNIT ( * ) PLANE_ANGLE_UNIT ( ) SI_UNIT ( $, .RADIAN. ) );
#145 = CIRCLE ( 'NONE', #207, 0.4199999999999999845 ) ;
#146 = APPROVAL_DATE_TIME ( #54, #88 ) ;
#147 = DESIGN_CONTEXT ( 'detailed design', #72, 'design' ) ;
#148 = SHAPE_DEFINITION_REPRESENTATION ( #222, #74 ) ;
#149 = EDGE_CURVE ( 'NONE', #18, #18, #145, .T. ) ;
#150 = AXIS2_PLACEMENT_3D ( 'NONE', #33, #52, #214 ) ;
#151 = PLANE ( 'NONE',  #47 ) ;
#152 = FACE_OUTER_BOUND ( 'NONE', #10, .T. ) ;
#153 = AXIS2_PLACEMENT_3D ( 'NONE', #221, #100, #81 ) ;
#154 = CARTESIAN_POINT ( 'NONE',  ( 3.606914904497215850E-14, -1.270450253846230301E-15, 10.33061487217437069 ) ) ;
#155 = APPROVAL ( #203, 'UNSPECIFIED' ) ;
#156 = MANIFOLD_SOLID_BREP ( 'Corps-Déplacer/Copier1[1]', #67 ) ;
#157 = EDGE_LOOP ( 'NONE', ( #139 ) ) ;
#158 = EDGE_LOOP ( 'NONE', ( #31 ) ) ;
#159 = EDGE_CURVE ( 'NONE', #119, #119, #36, .T. ) ;
#160 = DIRECTION ( 'NONE',  ( 3.491481338843133355E-15, -1.229791517316362731E-16, 1.000000000000000000 ) ) ;
#161 = ORIENTED_EDGE ( 'NONE', *, *, #135, .T. ) ;
#162 = VERTEX_POINT ( 'NONE', #17 ) ;
#163 = CARTESIAN_POINT ( 'NONE',  ( 5.337340179506263039E-16, -0.4199999999999999845, 0.1528674983918068275 ) ) ;
#164 = PERSON_AND_ORGANIZATION_ROLE ( 'design_owner' ) ;
#165 = COORDINATED_UNIVERSAL_TIME_OFFSET ( 1, 0, .AHEAD. ) ;
#166 = DATE_AND_TIME ( #21, #217 ) ;
#167 = CALENDAR_DATE ( 2021, 28, 10 ) ;
#168 = PLANE ( 'NONE',  #71 ) ;
#169 = APPROVAL_PERSON_ORGANIZATION ( #123, #88, #19 ) ;
#170 = DIRECTION ( 'NONE',  ( -3.491481338843133355E-15, 1.224646799147353207E-16, -1.000000000000000000 ) ) ;
#171 = DIRECTION ( 'NONE',  ( 3.491481338843133355E-15, -1.224646799147353207E-16, 1.000000000000000000 ) ) ;
#172 = FACE_OUTER_BOUND ( 'NONE', #176, .T. ) ;
#173 =( GEOMETRIC_REPRESENTATION_CONTEXT ( 3 ) GLOBAL_UNCERTAINTY_ASSIGNED_CONTEXT ( ( #128 ) ) GLOBAL_UNIT_ASSIGNED_CONTEXT ( ( #61, #144, #200 ) ) REPRESENTATION_CONTEXT ( 'NONE', 'WORKASPACE' ) );
#174 = FACE_OUTER_BOUND ( 'NONE', #46, .T. ) ;
#175 = CARTESIAN_POINT ( 'NONE',  ( 1.326762908760390423E-13, 1.199999999999995293, 38.00000000000000000 ) ) ;
#176 = EDGE_LOOP ( 'NONE', ( #197 ) ) ;
#177 = CC_DESIGN_PERSON_AND_ORGANIZATION_ASSIGNMENT ( #73, #188, ( #97 ) ) ;
#178 = APPLICATION_PROTOCOL_DEFINITION ( 'international standard', 'config_control_design', 1994, #72 ) ;
#179 = CALENDAR_DATE ( 2021, 28, 10 ) ;
#180 = DIRECTION ( 'NONE',  ( -3.491481338843133355E-15, 1.224646799147353207E-16, -1.000000000000000000 ) ) ;
#181 = MECHANICAL_CONTEXT ( 'NONE', #57, 'mechanical' ) ;
#182 = APPROVAL_DATE_TIME ( #166, #155 ) ;
#183 = AXIS2_PLACEMENT_3D ( 'NONE', #193, #83, #113 ) ;
#184 = ADVANCED_FACE ( 'NONE', ( #98 ), #99, .F. ) ;
#185 = PERSON_AND_ORGANIZATION_ROLE ( 'design_supplier' ) ;
#186 = PRODUCT_RELATED_PRODUCT_CATEGORY ( 'detail', '', ( #109 ) ) ;
#187 = LOCAL_TIME ( 11, 22, 32.00000000000000000, #121 ) ;
#188 = PERSON_AND_ORGANIZATION_ROLE ( 'creator' ) ;
#189 = CARTESIAN_POINT ( 'NONE',  ( 1.326762908760390423E-13, -4.653657836759941941E-15, 38.00000000000000000 ) ) ;
#190 = DIRECTION ( 'NONE',  ( 4.293794133377662246E-31, 1.000000000000000000, 1.229791517316362731E-16 ) ) ;
#191 = SECURITY_CLASSIFICATION ( '', '', #37 ) ;
#192 = DIRECTION ( 'NONE',  ( 0.0000000000000000000, 1.000000000000000000, 0.0000000000000000000 ) ) ;
#193 = CARTESIAN_POINT ( 'NONE',  ( 2.199633243471174014E-14, -7.747686559093085377E-16, 6.299999999999999822 ) ) ;
#194 = ADVANCED_FACE ( 'NONE', ( #152 ), #89, .T. ) ;
#195 = ORIENTED_EDGE ( 'NONE', *, *, #39, .F. ) ;
#196 = EDGE_LOOP ( 'NONE', ( #29 ) ) ;
#197 = ORIENTED_EDGE ( 'NONE', *, *, #120, .T. ) ;
#198 = CARTESIAN_POINT ( 'NONE',  ( 1.316288464743861212E-13, 1.499999999999995337, 37.69999999999999574 ) ) ;
#199 = CONICAL_SURFACE ( 'NONE', #92, 1.499999999999998446, 0.2617993877991501295 ) ;
#200 =( NAMED_UNIT ( * ) SI_UNIT ( $, .STERADIAN. ) SOLID_ANGLE_UNIT ( ) );
#201 = ADVANCED_FACE ( 'NONE', ( #27, #12 ), #199, .T. ) ;
#202 = LOCAL_TIME ( 11, 22, 32.00000000000000000, #165 ) ;
#203 = APPROVAL_STATUS ( 'not_yet_approved' ) ;
#204 = CARTESIAN_POINT ( 'NONE',  ( 0.0000000000000000000, 0.0000000000000000000, 0.0000000000000000000 ) ) ;
#205 = DIRECTION ( 'NONE',  ( 3.491481338843133355E-15, -1.224646799147353207E-16, 1.000000000000000000 ) ) ;
#206 = DIRECTION ( 'NONE',  ( -3.491481338843133355E-15, 1.224646799147353207E-16, -1.000000000000000000 ) ) ;
#207 = AXIS2_PLACEMENT_3D ( 'NONE', #25, #170, #40 ) ;
#208 = DIRECTION ( 'NONE',  ( -5.135813185032644414E-31, -1.000000000000000000, -1.445602896647343601E-16 ) ) ;
#209 = PERSON ( 'UNSPECIFIED', 'UNSPECIFIED', 'UNSPECIFIED', ('UNSPECIFIED'), ('UNSPECIFIED'), ('UNSPECIFIED') ) ;
#210 = ADVANCED_FACE ( 'NONE', ( #62, #125 ), #129, .T. ) ;
#211 = DIRECTION ( 'NONE',  ( -4.275831445896958607E-31, -1.000000000000000000, -1.224646799147353207E-16 ) ) ;
#212 = APPROVAL_STATUS ( 'not_yet_approved' ) ;
#213 = EDGE_LOOP ( 'NONE', ( #161 ) ) ;
#214 = DIRECTION ( 'NONE',  ( 1.000000000000000000, 0.0000000000000000000, 0.0000000000000000000 ) ) ;
#215 = ORIENTED_EDGE ( 'NONE', *, *, #130, .T. ) ;
#216 = DIRECTION ( 'NONE',  ( 0.0000000000000000000, 1.000000000000000000, 0.0000000000000000000 ) ) ;
#217 = LOCAL_TIME ( 11, 22, 32.00000000000000000, #38 ) ;
#218 = CLOSED_SHELL ( 'NONE', ( #106, #141, #194 ) ) ;
#219 = EDGE_LOOP ( 'NONE', ( #84 ) ) ;
#220 = CC_DESIGN_DATE_AND_TIME_ASSIGNMENT ( #127, #69, ( #191 ) ) ;
#221 = CARTESIAN_POINT ( 'NONE',  ( 2.199633243471174014E-14, -7.747686559093085377E-16, 6.299999999999999822 ) ) ;
#222 = PRODUCT_DEFINITION_SHAPE ( 'NONE', 'NONE',  #28 ) ;
#223 = CARTESIAN_POINT ( 'NONE',  ( 2.199633243471174014E-14, 1.124819836996389237E-32, 6.299999999999999822 ) ) ;
ENDSEC;
END-ISO-10303-21;
