ISO-10303-21;
HEADER;
FILE_DESCRIPTION (( 'STEP AP203' ),
    '1' );
FILE_NAME ('962863.step',
    '2021-10-28T09:22:32',
    ( '' ),
    ( '' ),
    'SwSTEP 2.0',
    'SolidWorks 2019',
    '' );
FILE_SCHEMA (( 'CONFIG_CONTROL_DESIGN' ));
ENDSEC;

DATA;
#1 = PERSON_AND_ORGANIZATION ( #132, #62 ) ;
#2 = DIRECTION ( 'NONE',  ( -5.135813185032644414E-31, -1.000000000000000000, -1.445602896647343601E-16 ) ) ;
#3 = EDGE_LOOP ( 'NONE', ( #89 ) ) ;
#4 = DIRECTION ( 'NONE',  ( 0.0000000000000000000, 0.0000000000000000000, 1.000000000000000000 ) ) ;
#5 = FACE_OUTER_BOUND ( 'NONE', #182, .T. ) ;
#6 = ORIENTED_EDGE ( 'NONE', *, *, #36, .F. ) ;
#7 = AXIS2_PLACEMENT_3D ( 'NONE', #97, #78, #29 ) ;
#8 = CLOSED_SHELL ( 'NONE', ( #122, #129, #81, #158, #49 ) ) ;
#9 = EDGE_LOOP ( 'NONE', ( #166 ) ) ;
#10 = PRODUCT_DEFINITION_FORMATION_WITH_SPECIFIED_SOURCE ( 'ANY', '', #59, .NOT_KNOWN. ) ;
#11 = DIRECTION ( 'NONE',  ( 3.491481338843133355E-15, -1.224646799147353207E-16, 1.000000000000000000 ) ) ;
#12 = DIRECTION ( 'NONE',  ( 3.491481338843133355E-15, -1.224646799147353207E-16, 1.000000000000000000 ) ) ;
#13 = CC_DESIGN_SECURITY_CLASSIFICATION ( #131, ( #10 ) ) ;
#14 = AXIS2_PLACEMENT_3D ( 'NONE', #85, #70, #2 ) ;
#15 = CALENDAR_DATE ( 2021, 28, 10 ) ;
#16 = AXIS2_PLACEMENT_3D ( 'NONE', #211, #50, #213 ) ;
#17 = PERSON_AND_ORGANIZATION_ROLE ( 'creator' ) ;
#18 = CARTESIAN_POINT ( 'NONE',  ( 0.0000000000000000000, 0.0000000000000000000, 0.0000000000000000000 ) ) ;
#19 = CARTESIAN_POINT ( 'NONE',  ( 1.316288464743861212E-13, 1.499999999999995337, 37.69999999999999574 ) ) ;
#20 = ORIENTED_EDGE ( 'NONE', *, *, #113, .T. ) ;
#21 = EDGE_LOOP ( 'NONE', ( #105 ) ) ;
#22 = APPROVAL_PERSON_ORGANIZATION ( #174, #126, #34 ) ;
#23 = FACE_OUTER_BOUND ( 'NONE', #68, .T. ) ;
#24 = CONICAL_SURFACE ( 'NONE', #42, 1.199999999999999956, 0.7853981633974453924 ) ;
#25 = LOCAL_TIME ( 11, 22, 32.00000000000000000, #28 ) ;
#26 = FACE_BOUND ( 'NONE', #212, .T. ) ;
#27 = DATE_AND_TIME ( #172, #171 ) ;
#28 = COORDINATED_UNIVERSAL_TIME_OFFSET ( 1, 0, .AHEAD. ) ;
#29 = DIRECTION ( 'NONE',  ( 4.293794133377662246E-31, 1.000000000000000000, 1.229791517316362731E-16 ) ) ;
#30 = DATE_AND_TIME ( #116, #165 ) ;
#31 = DIRECTION ( 'NONE',  ( 0.0000000000000000000, 1.000000000000000000, 0.0000000000000000000 ) ) ;
#32 = ADVANCED_BREP_SHAPE_REPRESENTATION ( '962863', ( #155, #162, #139 ), #147 ) ;
#33 = APPLICATION_CONTEXT ( 'configuration controlled 3d designs of mechanical parts and assemblies' ) ;
#34 = APPROVAL_ROLE ( '' ) ;
#35 = FACE_BOUND ( 'NONE', #9, .T. ) ;
#36 = EDGE_CURVE ( 'NONE', #159, #159, #57, .T. ) ;
#37 = SECURITY_CLASSIFICATION_LEVEL ( 'unclassified' ) ;
#38 = LOCAL_TIME ( 11, 22, 32.00000000000000000, #98 ) ;
#39 = APPROVAL_STATUS ( 'not_yet_approved' ) ;
#40 = ORIENTED_EDGE ( 'NONE', *, *, #102, .T. ) ;
#41 = CC_DESIGN_APPROVAL ( #66, ( #131 ) ) ;
#42 = AXIS2_PLACEMENT_3D ( 'NONE', #82, #134, #156 ) ;
#43 = APPROVAL ( #39, 'UNSPECIFIED' ) ;
#44 = PLANE ( 'NONE',  #181 ) ;
#45 = DATE_AND_TIME ( #209, #210 ) ;
#46 = PERSON_AND_ORGANIZATION_ROLE ( 'creator' ) ;
#47 = DIRECTION ( 'NONE',  ( -3.491481338843133355E-15, 1.229791517316362731E-16, -1.000000000000000000 ) ) ;
#48 = CARTESIAN_POINT ( 'NONE',  ( 1.316288464743861212E-13, -4.616918432785521081E-15, 37.69999999999999574 ) ) ;
#49 = ADVANCED_FACE ( 'NONE', ( #135 ), #92, .F. ) ;
#50 = DIRECTION ( 'NONE',  ( -3.491481338843133355E-15, 1.229791517316362731E-16, -1.000000000000000000 ) ) ;
#51 = CIRCLE ( 'NONE', #203, 0.4149999999999999800 ) ;
#52 = DIRECTION ( 'NONE',  ( 1.000000000000000000, 0.0000000000000000000, 0.0000000000000000000 ) ) ;
#53 = ORIENTED_EDGE ( 'NONE', *, *, #185, .F. ) ;
#54 = ORIENTED_EDGE ( 'NONE', *, *, #107, .T. ) ;
#55 = DIRECTION ( 'NONE',  ( -3.491481338843133355E-15, 1.224646799147353207E-16, -1.000000000000000000 ) ) ;
#56 = CONICAL_SURFACE ( 'NONE', #190, 1.499999999999998446, 0.2617993877991500740 ) ;
#57 = CIRCLE ( 'NONE', #76, 0.4149999999999999800 ) ;
#58 = DIRECTION ( 'NONE',  ( 0.0000000000000000000, -1.000000000000000000, 0.0000000000000000000 ) ) ;
#59 = PRODUCT ( '962863', '962863', '', ( #199 ) ) ;
#60 = CARTESIAN_POINT ( 'NONE',  ( 1.326762908760390423E-13, -4.653657836759941941E-15, 38.00000000000000000 ) ) ;
#61 = PRODUCT_DEFINITION ( 'UNKNOWN', '', #10, #133 ) ;
#62 = ORGANIZATION ( 'UNSPECIFIED', 'UNSPECIFIED', '' ) ;
#63 = SHAPE_DEFINITION_REPRESENTATION ( #115, #32 ) ;
#64 = CARTESIAN_POINT ( 'NONE',  ( 2.199633243471174014E-14, -7.747686559093085377E-16, 6.299999999999999822 ) ) ;
#65 = PERSON_AND_ORGANIZATION_ROLE ( 'design_owner' ) ;
#66 = APPROVAL ( #205, 'UNSPECIFIED' ) ;
#67 = CARTESIAN_POINT ( 'NONE',  ( 2.199633243471174014E-14, 0.4149999999999992584, 6.299999999999999822 ) ) ;
#68 = EDGE_LOOP ( 'NONE', ( #179 ) ) ;
#69 = CARTESIAN_POINT ( 'NONE',  ( 5.273800415464521484E-16, -0.4149999999999999800, 0.1510476472204758114 ) ) ;
#70 = DIRECTION ( 'NONE',  ( 3.491481338843133355E-15, -1.224646799147353207E-16, 1.000000000000000000 ) ) ;
#71 = AXIS2_PLACEMENT_3D ( 'NONE', #184, #12, #111 ) ;
#72 = ORIENTED_EDGE ( 'NONE', *, *, #107, .F. ) ;
#73 = DIRECTION ( 'NONE',  ( -3.491481338843133355E-15, 1.224646799147353207E-16, -1.000000000000000000 ) ) ;
#74 = CIRCLE ( 'NONE', #192, 0.4149999999999999800 ) ;
#75 = ADVANCED_FACE ( 'NONE', ( #23 ), #95, .T. ) ;
#76 = AXIS2_PLACEMENT_3D ( 'NONE', #93, #73, #150 ) ;
#77 = DATE_AND_TIME ( #204, #38 ) ;
#78 = DIRECTION ( 'NONE',  ( -3.491481338843133355E-15, 1.229791517316362731E-16, -1.000000000000000000 ) ) ;
#79 = DIRECTION ( 'NONE',  ( -3.491481338843133355E-15, 1.224646799147353207E-16, -1.000000000000000000 ) ) ;
#80 = CONICAL_SURFACE ( 'NONE', #14, 1.499999999999995559, 1.221730476396026388 ) ;
#81 = ADVANCED_FACE ( 'NONE', ( #219 ), #44, .F. ) ;
#82 = CARTESIAN_POINT ( 'NONE',  ( 1.326762908760390423E-13, -4.653657836759941941E-15, 38.00000000000000000 ) ) ;
#83 = DATE_TIME_ROLE ( 'creation_date' ) ;
#84 = VERTEX_POINT ( 'NONE', #145 ) ;
#85 = CARTESIAN_POINT ( 'NONE',  ( 1.906192921252232855E-15, -6.686024735685322183E-17, 0.5459553513993090634 ) ) ;
#86 = ORIENTED_EDGE ( 'NONE', *, *, #113, .F. ) ;
#87 =( LENGTH_UNIT ( ) NAMED_UNIT ( * ) SI_UNIT ( .MILLI., .METRE. ) );
#88 = FACE_OUTER_BOUND ( 'NONE', #3, .T. ) ;
#89 = ORIENTED_EDGE ( 'NONE', *, *, #136, .T. ) ;
#90 = ADVANCED_FACE ( 'NONE', ( #88, #5 ), #220, .T. ) ;
#91 = DIRECTION ( 'NONE',  ( -4.275831445896958607E-31, -1.000000000000000000, -1.224646799147353207E-16 ) ) ;
#92 = PLANE ( 'NONE',  #71 ) ;
#93 = CARTESIAN_POINT ( 'NONE',  ( 5.273800415464523456E-16, -1.849800176872942991E-17, 0.1510476472204758669 ) ) ;
#94 = CC_DESIGN_DATE_AND_TIME_ASSIGNMENT ( #45, #83, ( #61 ) ) ;
#95 = PLANE ( 'NONE',  #108 ) ;
#96 = DIRECTION ( 'NONE',  ( 0.0000000000000000000, 1.000000000000000000, 0.0000000000000000000 ) ) ;
#97 = CARTESIAN_POINT ( 'NONE',  ( 0.0000000000000000000, 0.0000000000000000000, 0.0000000000000000000 ) ) ;
#98 = COORDINATED_UNIVERSAL_TIME_OFFSET ( 1, 0, .AHEAD. ) ;
#99 = DIRECTION ( 'NONE',  ( -3.491481338843133355E-15, 1.224646799147353207E-16, -1.000000000000000000 ) ) ;
#100 = APPROVAL_DATE_TIME ( #114, #66 ) ;
#101 = APPROVAL_DATE_TIME ( #27, #43 ) ;
#102 = EDGE_CURVE ( 'NONE', #164, #164, #74, .T. ) ;
#103 = FACE_OUTER_BOUND ( 'NONE', #216, .T. ) ;
#104 = APPROVAL_ROLE ( '' ) ;
#105 = ORIENTED_EDGE ( 'NONE', *, *, #36, .T. ) ;
#106 = VERTEX_POINT ( 'NONE', #19 ) ;
#107 = EDGE_CURVE ( 'NONE', #106, #106, #144, .T. ) ;
#108 = AXIS2_PLACEMENT_3D ( 'NONE', #153, #11, #91 ) ;
#109 = AXIS2_PLACEMENT_3D ( 'NONE', #60, #137, #31 ) ;
#110 = CC_DESIGN_PERSON_AND_ORGANIZATION_ASSIGNMENT ( #119, #170, ( #131 ) ) ;
#111 = DIRECTION ( 'NONE',  ( -4.275831445896958607E-31, -1.000000000000000000, -1.224646799147353207E-16 ) ) ;
#112 = APPROVAL_PERSON_ORGANIZATION ( #143, #66, #221 ) ;
#113 = EDGE_CURVE ( 'NONE', #125, #125, #121, .T. ) ;
#114 = DATE_AND_TIME ( #15, #25 ) ;
#115 = PRODUCT_DEFINITION_SHAPE ( 'NONE', 'NONE',  #61 ) ;
#116 = CALENDAR_DATE ( 2021, 28, 10 ) ;
#117 = FACE_OUTER_BOUND ( 'NONE', #163, .T. ) ;
#118 = DIRECTION ( 'NONE',  ( 0.0000000000000000000, 1.000000000000000000, 0.0000000000000000000 ) ) ;
#119 = PERSON_AND_ORGANIZATION ( #132, #62 ) ;
#120 = DIRECTION ( 'NONE',  ( 4.275831445896959482E-31, 1.000000000000000000, 1.224646799147353207E-16 ) ) ;
#121 = CIRCLE ( 'NONE', #109, 1.199999999999999956 ) ;
#122 = ADVANCED_FACE ( 'NONE', ( #117, #173 ), #141, .T. ) ;
#123 = APPLICATION_PROTOCOL_DEFINITION ( 'international standard', 'config_control_design', 1994, #33 ) ;
#124 = FACE_OUTER_BOUND ( 'NONE', #21, .T. ) ;
#125 = VERTEX_POINT ( 'NONE', #180 ) ;
#126 = APPROVAL ( #187, 'UNSPECIFIED' ) ;
#127 = AXIS2_PLACEMENT_3D ( 'NONE', #18, #79, #120 ) ;
#128 = APPLICATION_PROTOCOL_DEFINITION ( 'international standard', 'config_control_design', 1994, #223 ) ;
#129 = ADVANCED_FACE ( 'NONE', ( #189, #26 ), #24, .T. ) ;
#130 = EDGE_LOOP ( 'NONE', ( #54 ) ) ;
#131 = SECURITY_CLASSIFICATION ( '', '', #37 ) ;
#132 = PERSON ( 'UNSPECIFIED', 'UNSPECIFIED', 'UNSPECIFIED', ('UNSPECIFIED'), ('UNSPECIFIED'), ('UNSPECIFIED') ) ;
#133 = DESIGN_CONTEXT ( 'detailed design', #33, 'design' ) ;
#134 = DIRECTION ( 'NONE',  ( -3.491481338843133355E-15, 1.224646799147353207E-16, -1.000000000000000000 ) ) ;
#135 = FACE_OUTER_BOUND ( 'NONE', #149, .T. ) ;
#136 = EDGE_CURVE ( 'NONE', #84, #84, #51, .T. ) ;
#137 = DIRECTION ( 'NONE',  ( -3.491481338843133355E-15, 1.224646799147353207E-16, -1.000000000000000000 ) ) ;
#138 = APPROVAL_DATE_TIME ( #30, #126 ) ;
#139 = AXIS2_PLACEMENT_3D ( 'NONE', #167, #4, #52 ) ;
#140 = PERSON_AND_ORGANIZATION ( #132, #62 ) ;
#141 = CYLINDRICAL_SURFACE ( 'NONE', #127, 1.499999999999998002 ) ;
#142 = CC_DESIGN_PERSON_AND_ORGANIZATION_ASSIGNMENT ( #1, #65, ( #59 ) ) ;
#143 = PERSON_AND_ORGANIZATION ( #132, #62 ) ;
#144 = CIRCLE ( 'NONE', #217, 1.499999999999999778 ) ;
#145 = CARTESIAN_POINT ( 'NONE',  ( 2.199633243471174014E-14, 0.4149999999999992584, 6.299999999999999822 ) ) ;
#146 =( NAMED_UNIT ( * ) SI_UNIT ( $, .STERADIAN. ) SOLID_ANGLE_UNIT ( ) );
#147 =( GEOMETRIC_REPRESENTATION_CONTEXT ( 3 ) GLOBAL_UNCERTAINTY_ASSIGNED_CONTEXT ( ( #151 ) ) GLOBAL_UNIT_ASSIGNED_CONTEXT ( ( #87, #160, #146 ) ) REPRESENTATION_CONTEXT ( 'NONE', 'WORKASPACE' ) );
#148 = APPROVAL_PERSON_ORGANIZATION ( #195, #43, #104 ) ;
#149 = EDGE_LOOP ( 'NONE', ( #40 ) ) ;
#150 = DIRECTION ( 'NONE',  ( -4.640795046716231530E-31, -1.000000000000000000, -1.306267677693378994E-16 ) ) ;
#151 = UNCERTAINTY_MEASURE_WITH_UNIT (LENGTH_MEASURE( 1.000000000000000082E-05 ), #87, 'distance_accuracy_value', 'NONE');
#152 = CC_DESIGN_DATE_AND_TIME_ASSIGNMENT ( #77, #154, ( #131 ) ) ;
#153 = CARTESIAN_POINT ( 'NONE',  ( 2.199633243471174014E-14, 1.124819836996389237E-32, 6.299999999999999822 ) ) ;
#154 = DATE_TIME_ROLE ( 'classification_date' ) ;
#155 = MANIFOLD_SOLID_BREP ( 'Corps-Déplacer/Copier1[1]', #8 ) ;
#156 = DIRECTION ( 'NONE',  ( 0.0000000000000000000, 1.000000000000000000, 0.0000000000000000000 ) ) ;
#157 = PERSON_AND_ORGANIZATION_ROLE ( 'design_supplier' ) ;
#158 = ADVANCED_FACE ( 'NONE', ( #35, #103 ), #56, .T. ) ;
#159 = VERTEX_POINT ( 'NONE', #69 ) ;
#160 =( NAMED_UNIT ( * ) PLANE_ANGLE_UNIT ( ) SI_UNIT ( $, .RADIAN. ) );
#161 = PRODUCT_RELATED_PRODUCT_CATEGORY ( 'detail', '', ( #59 ) ) ;
#162 = MANIFOLD_SOLID_BREP ( 'Corps-Déplacer/Copier1[2]', #222 ) ;
#163 = EDGE_LOOP ( 'NONE', ( #53 ) ) ;
#164 = VERTEX_POINT ( 'NONE', #67 ) ;
#165 = LOCAL_TIME ( 11, 22, 32.00000000000000000, #191 ) ;
#166 = ORIENTED_EDGE ( 'NONE', *, *, #102, .F. ) ;
#167 = CARTESIAN_POINT ( 'NONE',  ( 0.0000000000000000000, 0.0000000000000000000, 0.0000000000000000000 ) ) ;
#168 = CARTESIAN_POINT ( 'NONE',  ( 1.326762908760390423E-13, 8.998558695971077224E-33, 38.00000000000000000 ) ) ;
#169 = DIRECTION ( 'NONE',  ( 4.275831445896958607E-31, 1.000000000000000000, 1.224646799147353207E-16 ) ) ;
#170 = PERSON_AND_ORGANIZATION_ROLE ( 'classification_officer' ) ;
#171 = LOCAL_TIME ( 11, 22, 32.00000000000000000, #177 ) ;
#172 = CALENDAR_DATE ( 2021, 28, 10 ) ;
#173 = FACE_OUTER_BOUND ( 'NONE', #130, .T. ) ;
#174 = PERSON_AND_ORGANIZATION ( #132, #62 ) ;
#175 = DIRECTION ( 'NONE',  ( 3.491481338843133355E-15, -1.229791517316362731E-16, 1.000000000000000000 ) ) ;
#176 = PERSON_AND_ORGANIZATION ( #132, #62 ) ;
#177 = COORDINATED_UNIVERSAL_TIME_OFFSET ( 1, 0, .AHEAD. ) ;
#178 = ADVANCED_FACE ( 'NONE', ( #124 ), #80, .T. ) ;
#179 = ORIENTED_EDGE ( 'NONE', *, *, #136, .F. ) ;
#180 = CARTESIAN_POINT ( 'NONE',  ( 1.326762908760390423E-13, 1.199999999999995293, 38.00000000000000000 ) ) ;
#181 = AXIS2_PLACEMENT_3D ( 'NONE', #168, #55, #169 ) ;
#182 = EDGE_LOOP ( 'NONE', ( #6 ) ) ;
#183 = CC_DESIGN_PERSON_AND_ORGANIZATION_ASSIGNMENT ( #207, #157, ( #10 ) ) ;
#184 = CARTESIAN_POINT ( 'NONE',  ( 2.199633243471174014E-14, 1.124819836996389237E-32, 6.299999999999999822 ) ) ;
#185 = EDGE_CURVE ( 'NONE', #197, #197, #186, .T. ) ;
#186 = CIRCLE ( 'NONE', #16, 1.499999999999998446 ) ;
#187 = APPROVAL_STATUS ( 'not_yet_approved' ) ;
#188 = COORDINATED_UNIVERSAL_TIME_OFFSET ( 1, 0, .AHEAD. ) ;
#189 = FACE_OUTER_BOUND ( 'NONE', #214, .T. ) ;
#190 = AXIS2_PLACEMENT_3D ( 'NONE', #218, #175, #58 ) ;
#191 = COORDINATED_UNIVERSAL_TIME_OFFSET ( 1, 0, .AHEAD. ) ;
#192 = AXIS2_PLACEMENT_3D ( 'NONE', #206, #47, #208 ) ;
#193 = DIRECTION ( 'NONE',  ( -3.491481338843133355E-15, 1.229791517316362731E-16, -1.000000000000000000 ) ) ;
#194 = CC_DESIGN_PERSON_AND_ORGANIZATION_ASSIGNMENT ( #176, #46, ( #10 ) ) ;
#195 = PERSON_AND_ORGANIZATION ( #132, #62 ) ;
#196 = CC_DESIGN_APPROVAL ( #126, ( #10 ) ) ;
#197 = VERTEX_POINT ( 'NONE', #198 ) ;
#198 = CARTESIAN_POINT ( 'NONE',  ( 3.613430097372336677E-14, 1.499999999999997113, 10.34927512621221624 ) ) ;
#199 = MECHANICAL_CONTEXT ( 'NONE', #223, 'mechanical' ) ;
#200 = EDGE_LOOP ( 'NONE', ( #86 ) ) ;
#201 = ORIENTED_EDGE ( 'NONE', *, *, #185, .T. ) ;
#202 = CC_DESIGN_PERSON_AND_ORGANIZATION_ASSIGNMENT ( #140, #17, ( #61 ) ) ;
#203 = AXIS2_PLACEMENT_3D ( 'NONE', #64, #193, #96 ) ;
#204 = CALENDAR_DATE ( 2021, 28, 10 ) ;
#205 = APPROVAL_STATUS ( 'not_yet_approved' ) ;
#206 = CARTESIAN_POINT ( 'NONE',  ( 2.199633243471174014E-14, -7.747686559093085377E-16, 6.299999999999999822 ) ) ;
#207 = PERSON_AND_ORGANIZATION ( #132, #62 ) ;
#208 = DIRECTION ( 'NONE',  ( 0.0000000000000000000, 1.000000000000000000, 0.0000000000000000000 ) ) ;
#209 = CALENDAR_DATE ( 2021, 28, 10 ) ;
#210 = LOCAL_TIME ( 11, 22, 32.00000000000000000, #188 ) ;
#211 = CARTESIAN_POINT ( 'NONE',  ( 3.613430097372336677E-14, -1.272745076058901130E-15, 10.34927512621221624 ) ) ;
#212 = EDGE_LOOP ( 'NONE', ( #20 ) ) ;
#213 = DIRECTION ( 'NONE',  ( 0.0000000000000000000, 1.000000000000000000, 0.0000000000000000000 ) ) ;
#214 = EDGE_LOOP ( 'NONE', ( #72 ) ) ;
#215 = CC_DESIGN_APPROVAL ( #43, ( #61 ) ) ;
#216 = EDGE_LOOP ( 'NONE', ( #201 ) ) ;
#217 = AXIS2_PLACEMENT_3D ( 'NONE', #48, #99, #118 ) ;
#218 = CARTESIAN_POINT ( 'NONE',  ( 3.613430097372336677E-14, -1.272745076058901130E-15, 10.34927512621221624 ) ) ;
#219 = FACE_OUTER_BOUND ( 'NONE', #200, .T. ) ;
#220 = CYLINDRICAL_SURFACE ( 'NONE', #7, 0.4149999999999999800 ) ;
#221 = APPROVAL_ROLE ( '' ) ;
#222 = CLOSED_SHELL ( 'NONE', ( #75, #90, #178 ) ) ;
#223 = APPLICATION_CONTEXT ( 'configuration controlled 3d designs of mechanical parts and assemblies' ) ;
ENDSEC;
END-ISO-10303-21;
