ISO-10303-21;
HEADER;
FILE_DESCRIPTION (( 'STEP AP203' ),
    '1' );
FILE_NAME ('962862.step',
    '2021-10-28T09:22:31',
    ( '' ),
    ( '' ),
    'SwSTEP 2.0',
    'SolidWorks 2019',
    '' );
FILE_SCHEMA (( 'CONFIG_CONTROL_DESIGN' ));
ENDSEC;

DATA;
#1 = VERTEX_POINT ( 'NONE', #139 ) ;
#2 = CC_DESIGN_DATE_AND_TIME_ASSIGNMENT ( #62, #199, ( #166 ) ) ;
#3 = LOCAL_TIME ( 11, 22, 31.00000000000000000, #31 ) ;
#4 = APPROVAL_DATE_TIME ( #34, #79 ) ;
#5 = ORIENTED_EDGE ( 'NONE', *, *, #53, .T. ) ;
#6 = CARTESIAN_POINT ( 'NONE',  ( 3.619945290247457504E-14, -1.275039898271572354E-15, 10.36793538025006001 ) ) ;
#7 = CARTESIAN_POINT ( 'NONE',  ( 2.199633243471174014E-14, 1.124819836996389237E-32, 6.299999999999999822 ) ) ;
#8 = DIRECTION ( 'NONE',  ( 0.0000000000000000000, 1.000000000000000000, 0.0000000000000000000 ) ) ;
#9 = CONICAL_SURFACE ( 'NONE', #180, 1.499999999999998446, 0.2617993877991500740 ) ;
#10 = PLANE ( 'NONE',  #112 ) ;
#11 = PERSON_AND_ORGANIZATION_ROLE ( 'creator' ) ;
#12 = APPROVAL_PERSON_ORGANIZATION ( #151, #184, #83 ) ;
#13 = PERSON_AND_ORGANIZATION_ROLE ( 'design_supplier' ) ;
#14 = DIRECTION ( 'NONE',  ( 0.0000000000000000000, 1.000000000000000000, 0.0000000000000000000 ) ) ;
#15 = CLOSED_SHELL ( 'NONE', ( #149, #26, #177, #68, #102 ) ) ;
#16 = EDGE_LOOP ( 'NONE', ( #120 ) ) ;
#17 = DIRECTION ( 'NONE',  ( 0.0000000000000000000, 1.000000000000000000, 0.0000000000000000000 ) ) ;
#18 = FACE_OUTER_BOUND ( 'NONE', #33, .T. ) ;
#19 = DIRECTION ( 'NONE',  ( -3.491481338843133355E-15, 1.224646799147353207E-16, -1.000000000000000000 ) ) ;
#20 = FACE_OUTER_BOUND ( 'NONE', #207, .T. ) ;
#21 = DIRECTION ( 'NONE',  ( 4.293794133377663121E-31, 1.000000000000000000, 1.229791517316362731E-16 ) ) ;
#22 = CC_DESIGN_PERSON_AND_ORGANIZATION_ASSIGNMENT ( #85, #183, ( #50 ) ) ;
#23 = PERSON_AND_ORGANIZATION ( #156, #95 ) ;
#24 = APPLICATION_PROTOCOL_DEFINITION ( 'international standard', 'config_control_design', 1994, #32 ) ;
#25 = SECURITY_CLASSIFICATION ( '', '', #201 ) ;
#26 = ADVANCED_FACE ( 'NONE', ( #47, #118 ), #91, .T. ) ;
#27 = CIRCLE ( 'NONE', #218, 1.499999999999999778 ) ;
#28 = PERSON_AND_ORGANIZATION_ROLE ( 'classification_officer' ) ;
#29 = EDGE_LOOP ( 'NONE', ( #121 ) ) ;
#30 = CALENDAR_DATE ( 2021, 28, 10 ) ;
#31 = COORDINATED_UNIVERSAL_TIME_OFFSET ( 1, 0, .AHEAD. ) ;
#32 = APPLICATION_CONTEXT ( 'configuration controlled 3d designs of mechanical parts and assemblies' ) ;
#33 = EDGE_LOOP ( 'NONE', ( #140 ) ) ;
#34 = DATE_AND_TIME ( #209, #109 ) ;
#35 = PRODUCT_RELATED_PRODUCT_CATEGORY ( 'detail', '', ( #50 ) ) ;
#36 = ORIENTED_EDGE ( 'NONE', *, *, #53, .F. ) ;
#37 = APPROVAL_STATUS ( 'not_yet_approved' ) ;
#38 = VERTEX_POINT ( 'NONE', #108 ) ;
#39 = DIRECTION ( 'NONE',  ( -3.491481338843133355E-15, 1.224646799147353207E-16, -1.000000000000000000 ) ) ;
#40 = ADVANCED_FACE ( 'NONE', ( #84 ), #97, .T. ) ;
#41 = CARTESIAN_POINT ( 'NONE',  ( 1.316288464743861212E-13, -4.616918432785521081E-15, 37.69999999999999574 ) ) ;
#42 = DIRECTION ( 'NONE',  ( 0.0000000000000000000, 1.000000000000000000, 0.0000000000000000000 ) ) ;
#43 = CARTESIAN_POINT ( 'NONE',  ( 0.0000000000000000000, 0.0000000000000000000, 0.0000000000000000000 ) ) ;
#44 = CARTESIAN_POINT ( 'NONE',  ( 1.326762908760390423E-13, 1.199999999999995293, 38.00000000000000000 ) ) ;
#45 = MECHANICAL_CONTEXT ( 'NONE', #124, 'mechanical' ) ;
#46 = PERSON_AND_ORGANIZATION ( #156, #95 ) ;
#47 = FACE_OUTER_BOUND ( 'NONE', #29, .T. ) ;
#48 = AXIS2_PLACEMENT_3D ( 'NONE', #162, #110, #196 ) ;
#49 = CARTESIAN_POINT ( 'NONE',  ( 1.316288464743861212E-13, 1.499999999999995337, 37.69999999999999574 ) ) ;
#50 = PRODUCT ( '962862', '962862', '', ( #45 ) ) ;
#51 = DIRECTION ( 'NONE',  ( 1.000000000000000000, 0.0000000000000000000, 0.0000000000000000000 ) ) ;
#52 = EDGE_LOOP ( 'NONE', ( #170 ) ) ;
#53 = EDGE_CURVE ( 'NONE', #80, #80, #126, .T. ) ;
#54 = CIRCLE ( 'NONE', #217, 0.4099999999999999756 ) ;
#55 = AXIS2_PLACEMENT_3D ( 'NONE', #155, #100, #51 ) ;
#56 = DIRECTION ( 'NONE',  ( -3.491481338843133355E-15, 1.229791517316362731E-16, -1.000000000000000000 ) ) ;
#57 = EDGE_CURVE ( 'NONE', #125, #125, #186, .T. ) ;
#58 = DIRECTION ( 'NONE',  ( -3.491481338843133355E-15, 1.224646799147353207E-16, -1.000000000000000000 ) ) ;
#59 = FACE_OUTER_BOUND ( 'NONE', #105, .T. ) ;
#60 = DIRECTION ( 'NONE',  ( -3.491481338843133355E-15, 1.229791517316362731E-16, -1.000000000000000000 ) ) ;
#61 = DIRECTION ( 'NONE',  ( -3.491481338843133355E-15, 1.224646799147353207E-16, -1.000000000000000000 ) ) ;
#62 = DATE_AND_TIME ( #172, #128 ) ;
#63 = AXIS2_PLACEMENT_3D ( 'NONE', #43, #113, #21 ) ;
#64 = EDGE_CURVE ( 'NONE', #38, #38, #54, .T. ) ;
#65 = DATE_AND_TIME ( #30, #152 ) ;
#66 = AXIS2_PLACEMENT_3D ( 'NONE', #7, #77, #211 ) ;
#67 = CC_DESIGN_PERSON_AND_ORGANIZATION_ASSIGNMENT ( #223, #11, ( #220 ) ) ;
#68 = ADVANCED_FACE ( 'NONE', ( #213, #59 ), #9, .T. ) ;
#69 = MANIFOLD_SOLID_BREP ( 'Corps-Déplacer/Copier1[2]', #159 ) ;
#70 = COORDINATED_UNIVERSAL_TIME_OFFSET ( 1, 0, .AHEAD. ) ;
#71 = AXIS2_PLACEMENT_3D ( 'NONE', #158, #58, #146 ) ;
#72 = ORIENTED_EDGE ( 'NONE', *, *, #57, .T. ) ;
#73 = AXIS2_PLACEMENT_3D ( 'NONE', #215, #39, #96 ) ;
#74 = EDGE_LOOP ( 'NONE', ( #5 ) ) ;
#75 = CARTESIAN_POINT ( 'NONE',  ( 3.619945290247457504E-14, -1.275039898271572354E-15, 10.36793538025006001 ) ) ;
#76 = FACE_OUTER_BOUND ( 'NONE', #74, .T. ) ;
#77 = DIRECTION ( 'NONE',  ( 3.491481338843133355E-15, -1.224646799147353207E-16, 1.000000000000000000 ) ) ;
#78 = CARTESIAN_POINT ( 'NONE',  ( 1.326762908760390423E-13, 8.998558695971077224E-33, 38.00000000000000000 ) ) ;
#79 = APPROVAL ( #37, 'UNSPECIFIED' ) ;
#80 = VERTEX_POINT ( 'NONE', #208 ) ;
#81 = VERTEX_POINT ( 'NONE', #44 ) ;
#82 = APPROVAL_PERSON_ORGANIZATION ( #23, #79, #210 ) ;
#83 = APPROVAL_ROLE ( '' ) ;
#84 = FACE_OUTER_BOUND ( 'NONE', #52, .T. ) ;
#85 = PERSON_AND_ORGANIZATION ( #156, #95 ) ;
#86 = CC_DESIGN_PERSON_AND_ORGANIZATION_ASSIGNMENT ( #133, #28, ( #25 ) ) ;
#87 = EDGE_LOOP ( 'NONE', ( #189 ) ) ;
#88 = EDGE_LOOP ( 'NONE', ( #107 ) ) ;
#89 = CYLINDRICAL_SURFACE ( 'NONE', #71, 1.499999999999998002 ) ;
#90 = PLANE ( 'NONE',  #147 ) ;
#91 = CONICAL_SURFACE ( 'NONE', #174, 1.199999999999999956, 0.7853981633974453924 ) ;
#92 = UNCERTAINTY_MEASURE_WITH_UNIT (LENGTH_MEASURE( 1.000000000000000082E-05 ), #98, 'distance_accuracy_value', 'NONE');
#93 = CARTESIAN_POINT ( 'NONE',  ( 2.199633243471174014E-14, 1.124819836996389237E-32, 6.299999999999999822 ) ) ;
#94 = AXIS2_PLACEMENT_3D ( 'NONE', #75, #56, #42 ) ;
#95 = ORGANIZATION ( 'UNSPECIFIED', 'UNSPECIFIED', '' ) ;
#96 = DIRECTION ( 'NONE',  ( -4.697390108261550818E-31, -1.000000000000000000, -1.322197771323785883E-16 ) ) ;
#97 = PLANE ( 'NONE',  #66 ) ;
#98 =( LENGTH_UNIT ( ) NAMED_UNIT ( * ) SI_UNIT ( .MILLI., .METRE. ) );
#99 = APPROVAL_ROLE ( '' ) ;
#100 = DIRECTION ( 'NONE',  ( 0.0000000000000000000, 0.0000000000000000000, 1.000000000000000000 ) ) ;
#101 = CARTESIAN_POINT ( 'NONE',  ( 1.326762908760390423E-13, -4.653657836759941941E-15, 38.00000000000000000 ) ) ;
#102 = ADVANCED_FACE ( 'NONE', ( #76 ), #90, .F. ) ;
#103 = APPLICATION_PROTOCOL_DEFINITION ( 'international standard', 'config_control_design', 1994, #124 ) ;
#104 = CC_DESIGN_APPROVAL ( #197, ( #166 ) ) ;
#105 = EDGE_LOOP ( 'NONE', ( #72 ) ) ;
#106 = SHAPE_DEFINITION_REPRESENTATION ( #173, #145 ) ;
#107 = ORIENTED_EDGE ( 'NONE', *, *, #171, .T. ) ;
#108 = CARTESIAN_POINT ( 'NONE',  ( 2.199633243471174014E-14, 0.4099999999999992539, 6.299999999999999822 ) ) ;
#109 = LOCAL_TIME ( 11, 22, 31.00000000000000000, #191 ) ;
#110 = DIRECTION ( 'NONE',  ( 3.491481338843133355E-15, -1.224646799147353207E-16, 1.000000000000000000 ) ) ;
#111 = DIRECTION ( 'NONE',  ( -3.491481338843133355E-15, 1.224646799147353207E-16, -1.000000000000000000 ) ) ;
#112 = AXIS2_PLACEMENT_3D ( 'NONE', #78, #61, #150 ) ;
#113 = DIRECTION ( 'NONE',  ( -3.491481338843133355E-15, 1.229791517316362731E-16, -1.000000000000000000 ) ) ;
#114 = DATE_TIME_ROLE ( 'classification_date' ) ;
#115 = CONICAL_SURFACE ( 'NONE', #48, 1.499999999999995559, 1.221730476396026388 ) ;
#116 = APPROVAL_STATUS ( 'not_yet_approved' ) ;
#117 = ADVANCED_FACE ( 'NONE', ( #195 ), #115, .T. ) ;
#118 = FACE_BOUND ( 'NONE', #16, .T. ) ;
#119 = CC_DESIGN_PERSON_AND_ORGANIZATION_ASSIGNMENT ( #46, #164, ( #166 ) ) ;
#120 = ORIENTED_EDGE ( 'NONE', *, *, #214, .T. ) ;
#121 = ORIENTED_EDGE ( 'NONE', *, *, #153, .F. ) ;
#122 = CC_DESIGN_APPROVAL ( #79, ( #25 ) ) ;
#123 = ORIENTED_EDGE ( 'NONE', *, *, #64, .T. ) ;
#124 = APPLICATION_CONTEXT ( 'configuration controlled 3d designs of mechanical parts and assemblies' ) ;
#125 = VERTEX_POINT ( 'NONE', #193 ) ;
#126 = CIRCLE ( 'NONE', #212, 0.4099999999999999756 ) ;
#127 = CARTESIAN_POINT ( 'NONE',  ( 2.199633243471174014E-14, -7.747686559093085377E-16, 6.299999999999999822 ) ) ;
#128 = LOCAL_TIME ( 11, 22, 31.00000000000000000, #222 ) ;
#129 = DIRECTION ( 'NONE',  ( 3.491481338843133355E-15, -1.224646799147353207E-16, 1.000000000000000000 ) ) ;
#130 = FACE_OUTER_BOUND ( 'NONE', #206, .T. ) ;
#131 = FACE_OUTER_BOUND ( 'NONE', #175, .T. ) ;
#132 = CIRCLE ( 'NONE', #73, 0.4099999999999999756 ) ;
#133 = PERSON_AND_ORGANIZATION ( #156, #95 ) ;
#134 =( NAMED_UNIT ( * ) SI_UNIT ( $, .STERADIAN. ) SOLID_ANGLE_UNIT ( ) );
#135 = CC_DESIGN_APPROVAL ( #184, ( #220 ) ) ;
#136 = COORDINATED_UNIVERSAL_TIME_OFFSET ( 1, 0, .AHEAD. ) ;
#137 =( NAMED_UNIT ( * ) PLANE_ANGLE_UNIT ( ) SI_UNIT ( $, .RADIAN. ) );
#138 = ORIENTED_EDGE ( 'NONE', *, *, #171, .F. ) ;
#139 = CARTESIAN_POINT ( 'NONE',  ( 5.210260651422779928E-16, -0.4099999999999999756, 0.1492277960491447675 ) ) ;
#140 = ORIENTED_EDGE ( 'NONE', *, *, #214, .F. ) ;
#141 = CC_DESIGN_SECURITY_CLASSIFICATION ( #25, ( #220 ) ) ;
#142 = MANIFOLD_SOLID_BREP ( 'Corps-Déplacer/Copier1[1]', #15 ) ;
#143 = EDGE_LOOP ( 'NONE', ( #36 ) ) ;
#144 = DIRECTION ( 'NONE',  ( 3.491481338843133355E-15, -1.229791517316362731E-16, 1.000000000000000000 ) ) ;
#145 = ADVANCED_BREP_SHAPE_REPRESENTATION ( '962862', ( #142, #69, #55 ), #200 ) ;
#146 = DIRECTION ( 'NONE',  ( 4.275831445896959482E-31, 1.000000000000000000, 1.224646799147353207E-16 ) ) ;
#147 = AXIS2_PLACEMENT_3D ( 'NONE', #93, #129, #182 ) ;
#148 = DIRECTION ( 'NONE',  ( 0.0000000000000000000, 1.000000000000000000, 0.0000000000000000000 ) ) ;
#149 = ADVANCED_FACE ( 'NONE', ( #179, #20 ), #89, .T. ) ;
#150 = DIRECTION ( 'NONE',  ( 4.275831445896958607E-31, 1.000000000000000000, 1.224646799147353207E-16 ) ) ;
#151 = PERSON_AND_ORGANIZATION ( #156, #95 ) ;
#152 = LOCAL_TIME ( 11, 22, 31.00000000000000000, #136 ) ;
#153 = EDGE_CURVE ( 'NONE', #176, #176, #27, .T. ) ;
#154 = CIRCLE ( 'NONE', #203, 1.199999999999999956 ) ;
#155 = CARTESIAN_POINT ( 'NONE',  ( 0.0000000000000000000, 0.0000000000000000000, 0.0000000000000000000 ) ) ;
#156 = PERSON ( 'UNSPECIFIED', 'UNSPECIFIED', 'UNSPECIFIED', ('UNSPECIFIED'), ('UNSPECIFIED'), ('UNSPECIFIED') ) ;
#157 = CC_DESIGN_DATE_AND_TIME_ASSIGNMENT ( #167, #114, ( #25 ) ) ;
#158 = CARTESIAN_POINT ( 'NONE',  ( 0.0000000000000000000, 0.0000000000000000000, 0.0000000000000000000 ) ) ;
#159 = CLOSED_SHELL ( 'NONE', ( #40, #221, #117 ) ) ;
#160 = CARTESIAN_POINT ( 'NONE',  ( 2.199633243471174014E-14, -7.747686559093085377E-16, 6.299999999999999822 ) ) ;
#161 = DIRECTION ( 'NONE',  ( 0.0000000000000000000, 1.000000000000000000, 0.0000000000000000000 ) ) ;
#162 = CARTESIAN_POINT ( 'NONE',  ( 1.906192921252232855E-15, -6.686024735685322183E-17, 0.5459553513993090634 ) ) ;
#163 = CARTESIAN_POINT ( 'NONE',  ( 1.326762908760390423E-13, -4.653657836759941941E-15, 38.00000000000000000 ) ) ;
#164 = PERSON_AND_ORGANIZATION_ROLE ( 'creator' ) ;
#165 = APPROVAL_STATUS ( 'not_yet_approved' ) ;
#166 = PRODUCT_DEFINITION ( 'UNKNOWN', '', #220, #204 ) ;
#167 = DATE_AND_TIME ( #185, #181 ) ;
#168 = DIRECTION ( 'NONE',  ( -3.491481338843133355E-15, 1.224646799147353207E-16, -1.000000000000000000 ) ) ;
#169 = DATE_AND_TIME ( #219, #3 ) ;
#170 = ORIENTED_EDGE ( 'NONE', *, *, #64, .F. ) ;
#171 = EDGE_CURVE ( 'NONE', #1, #1, #132, .T. ) ;
#172 = CALENDAR_DATE ( 2021, 28, 10 ) ;
#173 = PRODUCT_DEFINITION_SHAPE ( 'NONE', 'NONE',  #166 ) ;
#174 = AXIS2_PLACEMENT_3D ( 'NONE', #101, #168, #14 ) ;
#175 = EDGE_LOOP ( 'NONE', ( #138 ) ) ;
#176 = VERTEX_POINT ( 'NONE', #49 ) ;
#177 = ADVANCED_FACE ( 'NONE', ( #18 ), #10, .F. ) ;
#178 = DIRECTION ( 'NONE',  ( -3.491481338843133355E-15, 1.229791517316362731E-16, -1.000000000000000000 ) ) ;
#179 = FACE_OUTER_BOUND ( 'NONE', #87, .T. ) ;
#180 = AXIS2_PLACEMENT_3D ( 'NONE', #6, #144, #194 ) ;
#181 = LOCAL_TIME ( 11, 22, 31.00000000000000000, #70 ) ;
#182 = DIRECTION ( 'NONE',  ( -4.275831445896958607E-31, -1.000000000000000000, -1.224646799147353207E-16 ) ) ;
#183 = PERSON_AND_ORGANIZATION_ROLE ( 'design_owner' ) ;
#184 = APPROVAL ( #165, 'UNSPECIFIED' ) ;
#185 = CALENDAR_DATE ( 2021, 28, 10 ) ;
#186 = CIRCLE ( 'NONE', #94, 1.499999999999998446 ) ;
#187 = APPROVAL_PERSON_ORGANIZATION ( #190, #197, #99 ) ;
#188 = APPROVAL_DATE_TIME ( #65, #184 ) ;
#189 = ORIENTED_EDGE ( 'NONE', *, *, #57, .F. ) ;
#190 = PERSON_AND_ORGANIZATION ( #156, #95 ) ;
#191 = COORDINATED_UNIVERSAL_TIME_OFFSET ( 1, 0, .AHEAD. ) ;
#192 = ORIENTED_EDGE ( 'NONE', *, *, #153, .T. ) ;
#193 = CARTESIAN_POINT ( 'NONE',  ( 3.619945290247457504E-14, 1.499999999999997113, 10.36793538025006001 ) ) ;
#194 = DIRECTION ( 'NONE',  ( 0.0000000000000000000, -1.000000000000000000, 0.0000000000000000000 ) ) ;
#195 = FACE_OUTER_BOUND ( 'NONE', #88, .T. ) ;
#196 = DIRECTION ( 'NONE',  ( -5.135813185032644414E-31, -1.000000000000000000, -1.445602896647343601E-16 ) ) ;
#197 = APPROVAL ( #116, 'UNSPECIFIED' ) ;
#198 = CYLINDRICAL_SURFACE ( 'NONE', #63, 0.4099999999999999756 ) ;
#199 = DATE_TIME_ROLE ( 'creation_date' ) ;
#200 =( GEOMETRIC_REPRESENTATION_CONTEXT ( 3 ) GLOBAL_UNCERTAINTY_ASSIGNED_CONTEXT ( ( #92 ) ) GLOBAL_UNIT_ASSIGNED_CONTEXT ( ( #98, #137, #134 ) ) REPRESENTATION_CONTEXT ( 'NONE', 'WORKASPACE' ) );
#201 = SECURITY_CLASSIFICATION_LEVEL ( 'unclassified' ) ;
#202 = APPROVAL_DATE_TIME ( #169, #197 ) ;
#203 = AXIS2_PLACEMENT_3D ( 'NONE', #163, #19, #148 ) ;
#204 = DESIGN_CONTEXT ( 'detailed design', #32, 'design' ) ;
#205 = CC_DESIGN_PERSON_AND_ORGANIZATION_ASSIGNMENT ( #216, #13, ( #220 ) ) ;
#206 = EDGE_LOOP ( 'NONE', ( #123 ) ) ;
#207 = EDGE_LOOP ( 'NONE', ( #192 ) ) ;
#208 = CARTESIAN_POINT ( 'NONE',  ( 2.199633243471174014E-14, 0.4099999999999992539, 6.299999999999999822 ) ) ;
#209 = CALENDAR_DATE ( 2021, 28, 10 ) ;
#210 = APPROVAL_ROLE ( '' ) ;
#211 = DIRECTION ( 'NONE',  ( -4.275831445896958607E-31, -1.000000000000000000, -1.224646799147353207E-16 ) ) ;
#212 = AXIS2_PLACEMENT_3D ( 'NONE', #127, #60, #8 ) ;
#213 = FACE_BOUND ( 'NONE', #143, .T. ) ;
#214 = EDGE_CURVE ( 'NONE', #81, #81, #154, .T. ) ;
#215 = CARTESIAN_POINT ( 'NONE',  ( 5.210260651422781901E-16, -1.827513427753992283E-17, 0.1492277960491448230 ) ) ;
#216 = PERSON_AND_ORGANIZATION ( #156, #95 ) ;
#217 = AXIS2_PLACEMENT_3D ( 'NONE', #160, #178, #17 ) ;
#218 = AXIS2_PLACEMENT_3D ( 'NONE', #41, #111, #161 ) ;
#219 = CALENDAR_DATE ( 2021, 28, 10 ) ;
#220 = PRODUCT_DEFINITION_FORMATION_WITH_SPECIFIED_SOURCE ( 'ANY', '', #50, .NOT_KNOWN. ) ;
#221 = ADVANCED_FACE ( 'NONE', ( #130, #131 ), #198, .T. ) ;
#222 = COORDINATED_UNIVERSAL_TIME_OFFSET ( 1, 0, .AHEAD. ) ;
#223 = PERSON_AND_ORGANIZATION ( #156, #95 ) ;
ENDSEC;
END-ISO-10303-21;
