ISO-10303-21;
HEADER;
FILE_DESCRIPTION (( 'STEP AP203' ),
    '1' );
FILE_NAME ('962861.step',
    '2021-10-28T09:22:31',
    ( '' ),
    ( '' ),
    'SwSTEP 2.0',
    'SolidWorks 2019',
    '' );
FILE_SCHEMA (( 'CONFIG_CONTROL_DESIGN' ));
ENDSEC;

DATA;
#1 = AXIS2_PLACEMENT_3D ( 'NONE', #199, #27, #168 ) ;
#2 = LOCAL_TIME ( 11, 22, 31.00000000000000000, #11 ) ;
#3 = EDGE_LOOP ( 'NONE', ( #127 ) ) ;
#4 = APPROVAL_ROLE ( '' ) ;
#5 = CYLINDRICAL_SURFACE ( 'NONE', #194, 0.4050000000000000266 ) ;
#6 = ADVANCED_FACE ( 'NONE', ( #34 ), #190, .F. ) ;
#7 = DATE_AND_TIME ( #89, #200 ) ;
#8 = CARTESIAN_POINT ( 'NONE',  ( 2.199633243471174014E-14, -7.747686559093085377E-16, 6.299999999999999822 ) ) ;
#9 = APPLICATION_PROTOCOL_DEFINITION ( 'international standard', 'config_control_design', 1994, #107 ) ;
#10 = DIRECTION ( 'NONE',  ( 0.0000000000000000000, 1.000000000000000000, 0.0000000000000000000 ) ) ;
#11 = COORDINATED_UNIVERSAL_TIME_OFFSET ( 1, 0, .AHEAD. ) ;
#12 = DIRECTION ( 'NONE',  ( -3.491481338843133355E-15, 1.229791517316362731E-16, -1.000000000000000000 ) ) ;
#13 = CC_DESIGN_PERSON_AND_ORGANIZATION_ASSIGNMENT ( #160, #148, ( #15 ) ) ;
#14 = FACE_OUTER_BOUND ( 'NONE', #70, .T. ) ;
#15 = PRODUCT_DEFINITION ( 'UNKNOWN', '', #17, #163 ) ;
#16 = MANIFOLD_SOLID_BREP ( 'Corps-Déplacer/Copier1[1]', #104 ) ;
#17 = PRODUCT_DEFINITION_FORMATION_WITH_SPECIFIED_SOURCE ( 'ANY', '', #68, .NOT_KNOWN. ) ;
#18 = CONICAL_SURFACE ( 'NONE', #145, 1.499999999999995559, 1.221730476396026388 ) ;
#19 = CC_DESIGN_PERSON_AND_ORGANIZATION_ASSIGNMENT ( #150, #143, ( #17 ) ) ;
#20 = CIRCLE ( 'NONE', #100, 1.199999999999999956 ) ;
#21 = CALENDAR_DATE ( 2021, 28, 10 ) ;
#22 = DIRECTION ( 'NONE',  ( -3.491481338843133355E-15, 1.224646799147353207E-16, -1.000000000000000000 ) ) ;
#23 = PLANE ( 'NONE',  #122 ) ;
#24 = DATE_AND_TIME ( #21, #186 ) ;
#25 = FACE_OUTER_BOUND ( 'NONE', #3, .T. ) ;
#26 = PERSON_AND_ORGANIZATION ( #152, #29 ) ;
#27 = DIRECTION ( 'NONE',  ( -3.491481338843133355E-15, 1.224646799147353207E-16, -1.000000000000000000 ) ) ;
#28 = FACE_OUTER_BOUND ( 'NONE', #103, .T. ) ;
#29 = ORGANIZATION ( 'UNSPECIFIED', 'UNSPECIFIED', '' ) ;
#30 = CIRCLE ( 'NONE', #119, 0.4050000000000000266 ) ;
#31 = CC_DESIGN_DATE_AND_TIME_ASSIGNMENT ( #41, #95, ( #207 ) ) ;
#32 = ORIENTED_EDGE ( 'NONE', *, *, #162, .T. ) ;
#33 = PRODUCT_DEFINITION_SHAPE ( 'NONE', 'NONE',  #15 ) ;
#34 = FACE_OUTER_BOUND ( 'NONE', #51, .T. ) ;
#35 = EDGE_LOOP ( 'NONE', ( #213 ) ) ;
#36 = DIRECTION ( 'NONE',  ( 4.293794133377662246E-31, 1.000000000000000000, 1.229791517316362977E-16 ) ) ;
#37 = CARTESIAN_POINT ( 'NONE',  ( 1.906192921252232855E-15, -6.686024735685322183E-17, 0.5459553513993090634 ) ) ;
#38 = CALENDAR_DATE ( 2021, 28, 10 ) ;
#39 = DIRECTION ( 'NONE',  ( -3.491481338843133355E-15, 1.229791517316362731E-16, -1.000000000000000000 ) ) ;
#40 = CALENDAR_DATE ( 2021, 28, 10 ) ;
#41 = DATE_AND_TIME ( #38, #157 ) ;
#42 = DIRECTION ( 'NONE',  ( 0.0000000000000000000, 1.000000000000000000, 0.0000000000000000000 ) ) ;
#43 = VERTEX_POINT ( 'NONE', #67 ) ;
#44 = CONICAL_SURFACE ( 'NONE', #189, 1.499999999999998446, 0.2617993877991500740 ) ;
#45 =( NAMED_UNIT ( * ) SI_UNIT ( $, .STERADIAN. ) SOLID_ANGLE_UNIT ( ) );
#46 = AXIS2_PLACEMENT_3D ( 'NONE', #154, #12, #110 ) ;
#47 = EDGE_CURVE ( 'NONE', #63, #63, #171, .T. ) ;
#48 = APPROVAL ( #114, 'UNSPECIFIED' ) ;
#49 = CC_DESIGN_APPROVAL ( #84, ( #207 ) ) ;
#50 = AXIS2_PLACEMENT_3D ( 'NONE', #165, #184, #218 ) ;
#51 = EDGE_LOOP ( 'NONE', ( #32 ) ) ;
#52 = EDGE_LOOP ( 'NONE', ( #85 ) ) ;
#53 = CC_DESIGN_PERSON_AND_ORGANIZATION_ASSIGNMENT ( #130, #117, ( #207 ) ) ;
#54 = ORIENTED_EDGE ( 'NONE', *, *, #47, .T. ) ;
#55 = SHAPE_DEFINITION_REPRESENTATION ( #33, #98 ) ;
#56 = FACE_BOUND ( 'NONE', #209, .T. ) ;
#57 =( GEOMETRIC_REPRESENTATION_CONTEXT ( 3 ) GLOBAL_UNCERTAINTY_ASSIGNED_CONTEXT ( ( #111 ) ) GLOBAL_UNIT_ASSIGNED_CONTEXT ( ( #205, #204, #45 ) ) REPRESENTATION_CONTEXT ( 'NONE', 'WORKASPACE' ) );
#58 = CIRCLE ( 'NONE', #46, 0.4050000000000000266 ) ;
#59 = DIRECTION ( 'NONE',  ( 3.491481338843133355E-15, -1.224646799147353207E-16, 1.000000000000000000 ) ) ;
#60 = APPROVAL_DATE_TIME ( #79, #48 ) ;
#61 = FACE_OUTER_BOUND ( 'NONE', #126, .T. ) ;
#62 = ADVANCED_FACE ( 'NONE', ( #182 ), #23, .F. ) ;
#63 = VERTEX_POINT ( 'NONE', #222 ) ;
#64 = AXIS2_PLACEMENT_3D ( 'NONE', #99, #172, #173 ) ;
#65 = VERTEX_POINT ( 'NONE', #135 ) ;
#66 = APPROVAL ( #181, 'UNSPECIFIED' ) ;
#67 = CARTESIAN_POINT ( 'NONE',  ( 5.146720887381039359E-16, -0.4050000000000000266, 0.1474079448778137513 ) ) ;
#68 = PRODUCT ( '962861', '962861', '', ( #156 ) ) ;
#69 = AXIS2_PLACEMENT_3D ( 'NONE', #125, #97, #42 ) ;
#70 = EDGE_LOOP ( 'NONE', ( #191 ) ) ;
#71 = DIRECTION ( 'NONE',  ( 3.491481338843133355E-15, -1.224646799147353207E-16, 1.000000000000000000 ) ) ;
#72 = APPROVAL_PERSON_ORGANIZATION ( #178, #66, #76 ) ;
#73 = ORIENTED_EDGE ( 'NONE', *, *, #162, .F. ) ;
#74 = PLANE ( 'NONE',  #198 ) ;
#75 = LOCAL_TIME ( 11, 22, 31.00000000000000000, #221 ) ;
#76 = APPROVAL_ROLE ( '' ) ;
#77 = CARTESIAN_POINT ( 'NONE',  ( 5.146720887381041331E-16, -1.805226678635040958E-17, 0.1474079448778138068 ) ) ;
#78 = DIRECTION ( 'NONE',  ( 0.0000000000000000000, -1.000000000000000000, 0.0000000000000000000 ) ) ;
#79 = DATE_AND_TIME ( #40, #2 ) ;
#80 = CYLINDRICAL_SURFACE ( 'NONE', #137, 1.499999999999998002 ) ;
#81 = ADVANCED_FACE ( 'NONE', ( #28, #197 ), #208, .T. ) ;
#82 = APPLICATION_PROTOCOL_DEFINITION ( 'international standard', 'config_control_design', 1994, #116 ) ;
#83 = ADVANCED_FACE ( 'NONE', ( #203 ), #74, .T. ) ;
#84 = APPROVAL ( #112, 'UNSPECIFIED' ) ;
#85 = ORIENTED_EDGE ( 'NONE', *, *, #101, .F. ) ;
#86 = APPROVAL_PERSON_ORGANIZATION ( #219, #84, #180 ) ;
#87 = MANIFOLD_SOLID_BREP ( 'Corps-Déplacer/Copier1[2]', #201 ) ;
#88 = CC_DESIGN_PERSON_AND_ORGANIZATION_ASSIGNMENT ( #166, #108, ( #68 ) ) ;
#89 = CALENDAR_DATE ( 2021, 28, 10 ) ;
#90 = CALENDAR_DATE ( 2021, 28, 10 ) ;
#91 = DIRECTION ( 'NONE',  ( -3.491481338843133355E-15, 1.224646799147353207E-16, -1.000000000000000000 ) ) ;
#92 = COORDINATED_UNIVERSAL_TIME_OFFSET ( 1, 0, .AHEAD. ) ;
#93 = CARTESIAN_POINT ( 'NONE',  ( 2.199633243471174014E-14, 1.124819836996389237E-32, 6.299999999999999822 ) ) ;
#94 = DIRECTION ( 'NONE',  ( 3.491481338843133355E-15, -1.229791517316362731E-16, 1.000000000000000000 ) ) ;
#95 = DATE_TIME_ROLE ( 'classification_date' ) ;
#96 = CARTESIAN_POINT ( 'NONE',  ( 0.0000000000000000000, 0.0000000000000000000, 0.0000000000000000000 ) ) ;
#97 = DIRECTION ( 'NONE',  ( -3.491481338843133355E-15, 1.229791517316362731E-16, -1.000000000000000000 ) ) ;
#98 = ADVANCED_BREP_SHAPE_REPRESENTATION ( '962861', ( #16, #87, #64 ), #57 ) ;
#99 = CARTESIAN_POINT ( 'NONE',  ( 0.0000000000000000000, 0.0000000000000000000, 0.0000000000000000000 ) ) ;
#100 = AXIS2_PLACEMENT_3D ( 'NONE', #149, #91, #115 ) ;
#101 = EDGE_CURVE ( 'NONE', #65, #65, #20, .T. ) ;
#102 = EDGE_LOOP ( 'NONE', ( #123 ) ) ;
#103 = EDGE_LOOP ( 'NONE', ( #211 ) ) ;
#104 = CLOSED_SHELL ( 'NONE', ( #185, #81, #62, #210, #6 ) ) ;
#105 = EDGE_CURVE ( 'NONE', #128, #128, #153, .T. ) ;
#106 = AXIS2_PLACEMENT_3D ( 'NONE', #8, #39, #10 ) ;
#107 = APPLICATION_CONTEXT ( 'configuration controlled 3d designs of mechanical parts and assemblies' ) ;
#108 = PERSON_AND_ORGANIZATION_ROLE ( 'design_owner' ) ;
#109 = DIRECTION ( 'NONE',  ( 4.275831445896958607E-31, 1.000000000000000000, 1.224646799147353207E-16 ) ) ;
#110 = DIRECTION ( 'NONE',  ( 0.0000000000000000000, 1.000000000000000000, 0.0000000000000000000 ) ) ;
#111 = UNCERTAINTY_MEASURE_WITH_UNIT (LENGTH_MEASURE( 1.000000000000000082E-05 ), #205, 'distance_accuracy_value', 'NONE');
#112 = APPROVAL_STATUS ( 'not_yet_approved' ) ;
#113 = DIRECTION ( 'NONE',  ( -5.135813185032644414E-31, -1.000000000000000000, -1.445602896647343601E-16 ) ) ;
#114 = APPROVAL_STATUS ( 'not_yet_approved' ) ;
#115 = DIRECTION ( 'NONE',  ( 0.0000000000000000000, 1.000000000000000000, 0.0000000000000000000 ) ) ;
#116 = APPLICATION_CONTEXT ( 'configuration controlled 3d designs of mechanical parts and assemblies' ) ;
#117 = PERSON_AND_ORGANIZATION_ROLE ( 'classification_officer' ) ;
#118 = DIRECTION ( 'NONE',  ( -3.491481338843133355E-15, 1.224646799147353207E-16, -1.000000000000000000 ) ) ;
#119 = AXIS2_PLACEMENT_3D ( 'NONE', #77, #22, #170 ) ;
#120 = CC_DESIGN_APPROVAL ( #48, ( #17 ) ) ;
#121 = EDGE_CURVE ( 'NONE', #206, #206, #176, .T. ) ;
#122 = AXIS2_PLACEMENT_3D ( 'NONE', #129, #118, #109 ) ;
#123 = ORIENTED_EDGE ( 'NONE', *, *, #140, .T. ) ;
#124 = ORIENTED_EDGE ( 'NONE', *, *, #121, .T. ) ;
#125 = CARTESIAN_POINT ( 'NONE',  ( 3.626460483122577700E-14, -1.277334720484243183E-15, 10.38659563428790555 ) ) ;
#126 = EDGE_LOOP ( 'NONE', ( #158 ) ) ;
#127 = ORIENTED_EDGE ( 'NONE', *, *, #140, .F. ) ;
#128 = VERTEX_POINT ( 'NONE', #193 ) ;
#129 = CARTESIAN_POINT ( 'NONE',  ( 1.326762908760390423E-13, 8.998558695971077224E-33, 38.00000000000000000 ) ) ;
#130 = PERSON_AND_ORGANIZATION ( #152, #29 ) ;
#131 = FACE_OUTER_BOUND ( 'NONE', #161, .T. ) ;
#132 = COORDINATED_UNIVERSAL_TIME_OFFSET ( 1, 0, .AHEAD. ) ;
#133 = CC_DESIGN_APPROVAL ( #66, ( #15 ) ) ;
#134 = ADVANCED_FACE ( 'NONE', ( #144, #25 ), #5, .T. ) ;
#135 = CARTESIAN_POINT ( 'NONE',  ( 1.326762908760390423E-13, 1.199999999999995293, 38.00000000000000000 ) ) ;
#136 = VERTEX_POINT ( 'NONE', #138 ) ;
#137 = AXIS2_PLACEMENT_3D ( 'NONE', #151, #167, #147 ) ;
#138 = CARTESIAN_POINT ( 'NONE',  ( 2.199633243471174014E-14, 0.4049999999999992495, 6.299999999999999822 ) ) ;
#139 = DIRECTION ( 'NONE',  ( -4.275831445896958607E-31, -1.000000000000000000, -1.224646799147353207E-16 ) ) ;
#140 = EDGE_CURVE ( 'NONE', #43, #43, #30, .T. ) ;
#141 = EDGE_LOOP ( 'NONE', ( #159 ) ) ;
#142 = ADVANCED_FACE ( 'NONE', ( #215 ), #18, .T. ) ;
#143 = PERSON_AND_ORGANIZATION_ROLE ( 'creator' ) ;
#144 = FACE_OUTER_BOUND ( 'NONE', #187, .T. ) ;
#145 = AXIS2_PLACEMENT_3D ( 'NONE', #37, #59, #113 ) ;
#146 = DATE_TIME_ROLE ( 'creation_date' ) ;
#147 = DIRECTION ( 'NONE',  ( 4.275831445896959482E-31, 1.000000000000000000, 1.224646799147353207E-16 ) ) ;
#148 = PERSON_AND_ORGANIZATION_ROLE ( 'creator' ) ;
#149 = CARTESIAN_POINT ( 'NONE',  ( 1.326762908760390423E-13, -4.653657836759941941E-15, 38.00000000000000000 ) ) ;
#150 = PERSON_AND_ORGANIZATION ( #152, #29 ) ;
#151 = CARTESIAN_POINT ( 'NONE',  ( 0.0000000000000000000, 0.0000000000000000000, 0.0000000000000000000 ) ) ;
#152 = PERSON ( 'UNSPECIFIED', 'UNSPECIFIED', 'UNSPECIFIED', ('UNSPECIFIED'), ('UNSPECIFIED'), ('UNSPECIFIED') ) ;
#153 = CIRCLE ( 'NONE', #50, 1.499999999999999778 ) ;
#154 = CARTESIAN_POINT ( 'NONE',  ( 2.199633243471174014E-14, -7.747686559093085377E-16, 6.299999999999999822 ) ) ;
#155 = CARTESIAN_POINT ( 'NONE',  ( 2.199633243471174014E-14, 0.4049999999999992495, 6.299999999999999822 ) ) ;
#156 = MECHANICAL_CONTEXT ( 'NONE', #116, 'mechanical' ) ;
#157 = LOCAL_TIME ( 11, 22, 31.00000000000000000, #132 ) ;
#158 = ORIENTED_EDGE ( 'NONE', *, *, #105, .T. ) ;
#159 = ORIENTED_EDGE ( 'NONE', *, *, #121, .F. ) ;
#160 = PERSON_AND_ORGANIZATION ( #152, #29 ) ;
#161 = EDGE_LOOP ( 'NONE', ( #54 ) ) ;
#162 = EDGE_CURVE ( 'NONE', #136, #136, #58, .T. ) ;
#163 = DESIGN_CONTEXT ( 'detailed design', #107, 'design' ) ;
#164 = DATE_AND_TIME ( #90, #75 ) ;
#165 = CARTESIAN_POINT ( 'NONE',  ( 1.316288464743861212E-13, -4.616918432785521081E-15, 37.69999999999999574 ) ) ;
#166 = PERSON_AND_ORGANIZATION ( #152, #29 ) ;
#167 = DIRECTION ( 'NONE',  ( -3.491481338843133355E-15, 1.224646799147353207E-16, -1.000000000000000000 ) ) ;
#168 = DIRECTION ( 'NONE',  ( 0.0000000000000000000, 1.000000000000000000, 0.0000000000000000000 ) ) ;
#169 = PERSON_AND_ORGANIZATION_ROLE ( 'design_supplier' ) ;
#170 = DIRECTION ( 'NONE',  ( -4.755382578733915676E-31, -1.000000000000000000, -1.338521200599388187E-16 ) ) ;
#171 = CIRCLE ( 'NONE', #69, 1.499999999999998446 ) ;
#172 = DIRECTION ( 'NONE',  ( 0.0000000000000000000, 0.0000000000000000000, 1.000000000000000000 ) ) ;
#173 = DIRECTION ( 'NONE',  ( 1.000000000000000000, 0.0000000000000000000, 0.0000000000000000000 ) ) ;
#174 = CARTESIAN_POINT ( 'NONE',  ( 2.199633243471174014E-14, 1.124819836996389237E-32, 6.299999999999999822 ) ) ;
#175 = PRODUCT_RELATED_PRODUCT_CATEGORY ( 'detail', '', ( #68 ) ) ;
#176 = CIRCLE ( 'NONE', #106, 0.4050000000000000266 ) ;
#177 = DIRECTION ( 'NONE',  ( -3.491481338843133355E-15, 1.229791517316362731E-16, -1.000000000000000000 ) ) ;
#178 = PERSON_AND_ORGANIZATION ( #152, #29 ) ;
#179 = DIRECTION ( 'NONE',  ( -4.275831445896958607E-31, -1.000000000000000000, -1.224646799147353207E-16 ) ) ;
#180 = APPROVAL_ROLE ( '' ) ;
#181 = APPROVAL_STATUS ( 'not_yet_approved' ) ;
#182 = FACE_OUTER_BOUND ( 'NONE', #52, .T. ) ;
#183 = APPROVAL_DATE_TIME ( #164, #84 ) ;
#184 = DIRECTION ( 'NONE',  ( -3.491481338843133355E-15, 1.224646799147353207E-16, -1.000000000000000000 ) ) ;
#185 = ADVANCED_FACE ( 'NONE', ( #14, #61 ), #80, .T. ) ;
#186 = LOCAL_TIME ( 11, 22, 31.00000000000000000, #92 ) ;
#187 = EDGE_LOOP ( 'NONE', ( #124 ) ) ;
#188 = CC_DESIGN_DATE_AND_TIME_ASSIGNMENT ( #7, #146, ( #15 ) ) ;
#189 = AXIS2_PLACEMENT_3D ( 'NONE', #220, #94, #78 ) ;
#190 = PLANE ( 'NONE',  #216 ) ;
#191 = ORIENTED_EDGE ( 'NONE', *, *, #47, .F. ) ;
#192 = CC_DESIGN_PERSON_AND_ORGANIZATION_ASSIGNMENT ( #196, #169, ( #17 ) ) ;
#193 = CARTESIAN_POINT ( 'NONE',  ( 1.316288464743861212E-13, 1.499999999999995337, 37.69999999999999574 ) ) ;
#194 = AXIS2_PLACEMENT_3D ( 'NONE', #96, #177, #36 ) ;
#195 = DIRECTION ( 'NONE',  ( 3.491481338843133355E-15, -1.224646799147353207E-16, 1.000000000000000000 ) ) ;
#196 = PERSON_AND_ORGANIZATION ( #152, #29 ) ;
#197 = FACE_BOUND ( 'NONE', #35, .T. ) ;
#198 = AXIS2_PLACEMENT_3D ( 'NONE', #93, #195, #179 ) ;
#199 = CARTESIAN_POINT ( 'NONE',  ( 1.326762908760390423E-13, -4.653657836759941941E-15, 38.00000000000000000 ) ) ;
#200 = LOCAL_TIME ( 11, 22, 31.00000000000000000, #202 ) ;
#201 = CLOSED_SHELL ( 'NONE', ( #83, #134, #142 ) ) ;
#202 = COORDINATED_UNIVERSAL_TIME_OFFSET ( 1, 0, .AHEAD. ) ;
#203 = FACE_OUTER_BOUND ( 'NONE', #141, .T. ) ;
#204 =( NAMED_UNIT ( * ) PLANE_ANGLE_UNIT ( ) SI_UNIT ( $, .RADIAN. ) );
#205 =( LENGTH_UNIT ( ) NAMED_UNIT ( * ) SI_UNIT ( .MILLI., .METRE. ) );
#206 = VERTEX_POINT ( 'NONE', #155 ) ;
#207 = SECURITY_CLASSIFICATION ( '', '', #212 ) ;
#208 = CONICAL_SURFACE ( 'NONE', #1, 1.199999999999999956, 0.7853981633974453924 ) ;
#209 = EDGE_LOOP ( 'NONE', ( #73 ) ) ;
#210 = ADVANCED_FACE ( 'NONE', ( #56, #131 ), #44, .T. ) ;
#211 = ORIENTED_EDGE ( 'NONE', *, *, #105, .F. ) ;
#212 = SECURITY_CLASSIFICATION_LEVEL ( 'unclassified' ) ;
#213 = ORIENTED_EDGE ( 'NONE', *, *, #101, .T. ) ;
#214 = CC_DESIGN_SECURITY_CLASSIFICATION ( #207, ( #17 ) ) ;
#215 = FACE_OUTER_BOUND ( 'NONE', #102, .T. ) ;
#216 = AXIS2_PLACEMENT_3D ( 'NONE', #174, #71, #139 ) ;
#217 = APPROVAL_DATE_TIME ( #24, #66 ) ;
#218 = DIRECTION ( 'NONE',  ( 0.0000000000000000000, 1.000000000000000000, 0.0000000000000000000 ) ) ;
#219 = PERSON_AND_ORGANIZATION ( #152, #29 ) ;
#220 = CARTESIAN_POINT ( 'NONE',  ( 3.626460483122577700E-14, -1.277334720484243183E-15, 10.38659563428790555 ) ) ;
#221 = COORDINATED_UNIVERSAL_TIME_OFFSET ( 1, 0, .AHEAD. ) ;
#222 = CARTESIAN_POINT ( 'NONE',  ( 3.626460483122577700E-14, 1.499999999999997113, 10.38659563428790555 ) ) ;
#223 = APPROVAL_PERSON_ORGANIZATION ( #26, #48, #4 ) ;
ENDSEC;
END-ISO-10303-21;
