ISO-10303-21;
HEADER;
FILE_DESCRIPTION (( 'STEP AP203' ),
    '1' );
FILE_NAME ('962860.step',
    '2021-10-28T09:22:30',
    ( '' ),
    ( '' ),
    'SwSTEP 2.0',
    'SolidWorks 2019',
    '' );
FILE_SCHEMA (( 'CONFIG_CONTROL_DESIGN' ));
ENDSEC;

DATA;
#1 = FACE_OUTER_BOUND ( 'NONE', #104, .T. ) ;
#2 = DIRECTION ( 'NONE',  ( -3.491481338843133355E-15, 1.224646799147353207E-16, -1.000000000000000000 ) ) ;
#3 = FACE_OUTER_BOUND ( 'NONE', #117, .T. ) ;
#4 = AXIS2_PLACEMENT_3D ( 'NONE', #141, #211, #56 ) ;
#5 = EDGE_CURVE ( 'NONE', #29, #29, #155, .T. ) ;
#6 = CARTESIAN_POINT ( 'NONE',  ( 1.326762908760390423E-13, -4.653657836759941941E-15, 38.00000000000000000 ) ) ;
#7 = VERTEX_POINT ( 'NONE', #28 ) ;
#8 = CC_DESIGN_APPROVAL ( #67, ( #88 ) ) ;
#9 = UNCERTAINTY_MEASURE_WITH_UNIT (LENGTH_MEASURE( 1.000000000000000082E-05 ), #163, 'distance_accuracy_value', 'NONE');
#10 = CARTESIAN_POINT ( 'NONE',  ( 3.632975675997698527E-14, 1.499999999999997113, 10.40525588832574755 ) ) ;
#11 = AXIS2_PLACEMENT_3D ( 'NONE', #72, #2, #55 ) ;
#12 = PERSON_AND_ORGANIZATION ( #157, #192 ) ;
#13 = PERSON_AND_ORGANIZATION ( #157, #192 ) ;
#14 = DATE_AND_TIME ( #51, #122 ) ;
#15 = EDGE_LOOP ( 'NONE', ( #50 ) ) ;
#16 = CIRCLE ( 'NONE', #11, 1.199999999999999956 ) ;
#17 = DIRECTION ( 'NONE',  ( -5.135813185032644414E-31, -1.000000000000000000, -1.445602896647343601E-16 ) ) ;
#18 = MANIFOLD_SOLID_BREP ( 'Corps-Déplacer/Copier1[2]', #131 ) ;
#19 = DIRECTION ( 'NONE',  ( -3.491481338843133355E-15, 1.229791517316362731E-16, -1.000000000000000000 ) ) ;
#20 = CARTESIAN_POINT ( 'NONE',  ( 5.083181123339298790E-16, -1.782939929516089326E-17, 0.1455880937064827074 ) ) ;
#21 = PRODUCT ( '962860', '962860', '', ( #200 ) ) ;
#22 = AXIS2_PLACEMENT_3D ( 'NONE', #213, #60, #17 ) ;
#23 = DIRECTION ( 'NONE',  ( 0.0000000000000000000, 1.000000000000000000, 0.0000000000000000000 ) ) ;
#24 = CARTESIAN_POINT ( 'NONE',  ( 2.199633243471174014E-14, -7.747686559093085377E-16, 6.299999999999999822 ) ) ;
#25 = FACE_OUTER_BOUND ( 'NONE', #193, .T. ) ;
#26 =( NAMED_UNIT ( * ) PLANE_ANGLE_UNIT ( ) SI_UNIT ( $, .RADIAN. ) );
#27 = CC_DESIGN_DATE_AND_TIME_ASSIGNMENT ( #120, #205, ( #196 ) ) ;
#28 = CARTESIAN_POINT ( 'NONE',  ( 1.326762908760390423E-13, 1.199999999999995293, 38.00000000000000000 ) ) ;
#29 = VERTEX_POINT ( 'NONE', #43 ) ;
#30 = DESIGN_CONTEXT ( 'detailed design', #59, 'design' ) ;
#31 = COORDINATED_UNIVERSAL_TIME_OFFSET ( 1, 0, .AHEAD. ) ;
#32 = EDGE_CURVE ( 'NONE', #217, #217, #184, .T. ) ;
#33 = APPROVAL_STATUS ( 'not_yet_approved' ) ;
#34 = ORIENTED_EDGE ( 'NONE', *, *, #147, .T. ) ;
#35 = AXIS2_PLACEMENT_3D ( 'NONE', #176, #19, #23 ) ;
#36 = DATE_AND_TIME ( #118, #105 ) ;
#37 = COORDINATED_UNIVERSAL_TIME_OFFSET ( 1, 0, .AHEAD. ) ;
#38 = CIRCLE ( 'NONE', #215, 0.4000000000000000222 ) ;
#39 = FACE_OUTER_BOUND ( 'NONE', #220, .T. ) ;
#40 = CC_DESIGN_DATE_AND_TIME_ASSIGNMENT ( #203, #219, ( #216 ) ) ;
#41 = LOCAL_TIME ( 11, 22, 30.00000000000000000, #151 ) ;
#42 = CARTESIAN_POINT ( 'NONE',  ( 3.632975675997698527E-14, -1.279629542696914012E-15, 10.40525588832574755 ) ) ;
#43 = CARTESIAN_POINT ( 'NONE',  ( 2.199633243471174014E-14, 0.3999999999999992450, 6.299999999999999822 ) ) ;
#44 = CONICAL_SURFACE ( 'NONE', #187, 1.199999999999999956, 0.7853981633974453924 ) ;
#45 = PERSON_AND_ORGANIZATION_ROLE ( 'design_owner' ) ;
#46 = APPROVAL_STATUS ( 'not_yet_approved' ) ;
#47 = CC_DESIGN_APPROVAL ( #57, ( #196 ) ) ;
#48 = LOCAL_TIME ( 11, 22, 30.00000000000000000, #135 ) ;
#49 = SECURITY_CLASSIFICATION_LEVEL ( 'unclassified' ) ;
#50 = ORIENTED_EDGE ( 'NONE', *, *, #89, .F. ) ;
#51 = CALENDAR_DATE ( 2021, 28, 10 ) ;
#52 = EDGE_LOOP ( 'NONE', ( #208 ) ) ;
#53 = EDGE_LOOP ( 'NONE', ( #70 ) ) ;
#54 = CC_DESIGN_SECURITY_CLASSIFICATION ( #196, ( #88 ) ) ;
#55 = DIRECTION ( 'NONE',  ( 0.0000000000000000000, 1.000000000000000000, 0.0000000000000000000 ) ) ;
#56 = DIRECTION ( 'NONE',  ( 4.275831445896958607E-31, 1.000000000000000000, 1.224646799147353207E-16 ) ) ;
#57 = APPROVAL ( #33, 'UNSPECIFIED' ) ;
#58 = EDGE_LOOP ( 'NONE', ( #173 ) ) ;
#59 = APPLICATION_CONTEXT ( 'configuration controlled 3d designs of mechanical parts and assemblies' ) ;
#60 = DIRECTION ( 'NONE',  ( 3.491481338843133355E-15, -1.224646799147353207E-16, 1.000000000000000000 ) ) ;
#61 = VERTEX_POINT ( 'NONE', #130 ) ;
#62 = EDGE_CURVE ( 'NONE', #7, #7, #16, .T. ) ;
#63 = DIRECTION ( 'NONE',  ( 0.0000000000000000000, 1.000000000000000000, 0.0000000000000000000 ) ) ;
#64 = DIRECTION ( 'NONE',  ( 0.0000000000000000000, 0.0000000000000000000, 1.000000000000000000 ) ) ;
#65 = DATE_AND_TIME ( #97, #144 ) ;
#66 = PERSON_AND_ORGANIZATION_ROLE ( 'classification_officer' ) ;
#67 = APPROVAL ( #172, 'UNSPECIFIED' ) ;
#68 = APPLICATION_CONTEXT ( 'configuration controlled 3d designs of mechanical parts and assemblies' ) ;
#69 = AXIS2_PLACEMENT_3D ( 'NONE', #127, #212, #145 ) ;
#70 = ORIENTED_EDGE ( 'NONE', *, *, #147, .F. ) ;
#71 = PRODUCT_DEFINITION_SHAPE ( 'NONE', 'NONE',  #216 ) ;
#72 = CARTESIAN_POINT ( 'NONE',  ( 1.326762908760390423E-13, -4.653657836759941941E-15, 38.00000000000000000 ) ) ;
#73 = FACE_OUTER_BOUND ( 'NONE', #58, .T. ) ;
#74 = CARTESIAN_POINT ( 'NONE',  ( 2.199633243471174014E-14, 0.3999999999999992450, 6.299999999999999822 ) ) ;
#75 = APPLICATION_PROTOCOL_DEFINITION ( 'international standard', 'config_control_design', 1994, #68 ) ;
#76 = FACE_OUTER_BOUND ( 'NONE', #106, .T. ) ;
#77 =( GEOMETRIC_REPRESENTATION_CONTEXT ( 3 ) GLOBAL_UNCERTAINTY_ASSIGNED_CONTEXT ( ( #9 ) ) GLOBAL_UNIT_ASSIGNED_CONTEXT ( ( #163, #26, #108 ) ) REPRESENTATION_CONTEXT ( 'NONE', 'WORKASPACE' ) );
#78 = CARTESIAN_POINT ( 'NONE',  ( 0.0000000000000000000, 0.0000000000000000000, 0.0000000000000000000 ) ) ;
#79 = AXIS2_PLACEMENT_3D ( 'NONE', #42, #178, #160 ) ;
#80 = APPROVAL_ROLE ( '' ) ;
#81 = ORIENTED_EDGE ( 'NONE', *, *, #89, .T. ) ;
#82 = AXIS2_PLACEMENT_3D ( 'NONE', #177, #159, #85 ) ;
#83 = CC_DESIGN_PERSON_AND_ORGANIZATION_ASSIGNMENT ( #133, #189, ( #216 ) ) ;
#84 = DIRECTION ( 'NONE',  ( -3.491481338843133355E-15, 1.224646799147353207E-16, -1.000000000000000000 ) ) ;
#85 = DIRECTION ( 'NONE',  ( 4.293794133377662246E-31, 1.000000000000000000, 1.229791517316362731E-16 ) ) ;
#86 = PLANE ( 'NONE',  #4 ) ;
#87 = FACE_OUTER_BOUND ( 'NONE', #100, .T. ) ;
#88 = PRODUCT_DEFINITION_FORMATION_WITH_SPECIFIED_SOURCE ( 'ANY', '', #21, .NOT_KNOWN. ) ;
#89 = EDGE_CURVE ( 'NONE', #146, #146, #38, .T. ) ;
#90 = CARTESIAN_POINT ( 'NONE',  ( 5.083181123339296818E-16, -0.4000000000000000222, 0.1455880937064826797 ) ) ;
#91 = CARTESIAN_POINT ( 'NONE',  ( 0.0000000000000000000, 0.0000000000000000000, 0.0000000000000000000 ) ) ;
#92 = DIRECTION ( 'NONE',  ( 4.275831445896959482E-31, 1.000000000000000000, 1.224646799147353207E-16 ) ) ;
#93 = CIRCLE ( 'NONE', #222, 0.4000000000000000222 ) ;
#94 = DIRECTION ( 'NONE',  ( 0.0000000000000000000, 1.000000000000000000, 0.0000000000000000000 ) ) ;
#95 = APPROVAL_DATE_TIME ( #65, #57 ) ;
#96 = ORIENTED_EDGE ( 'NONE', *, *, #62, .F. ) ;
#97 = CALENDAR_DATE ( 2021, 28, 10 ) ;
#98 = AXIS2_PLACEMENT_3D ( 'NONE', #91, #64, #107 ) ;
#99 = COORDINATED_UNIVERSAL_TIME_OFFSET ( 1, 0, .AHEAD. ) ;
#100 = EDGE_LOOP ( 'NONE', ( #136 ) ) ;
#101 = EDGE_LOOP ( 'NONE', ( #154 ) ) ;
#102 = PERSON_AND_ORGANIZATION ( #157, #192 ) ;
#103 = ORIENTED_EDGE ( 'NONE', *, *, #5, .T. ) ;
#104 = EDGE_LOOP ( 'NONE', ( #96 ) ) ;
#105 = LOCAL_TIME ( 11, 22, 30.00000000000000000, #37 ) ;
#106 = EDGE_LOOP ( 'NONE', ( #103 ) ) ;
#107 = DIRECTION ( 'NONE',  ( 1.000000000000000000, 0.0000000000000000000, 0.0000000000000000000 ) ) ;
#108 =( NAMED_UNIT ( * ) SI_UNIT ( $, .STERADIAN. ) SOLID_ANGLE_UNIT ( ) );
#109 = PERSON_AND_ORGANIZATION ( #157, #192 ) ;
#110 = ADVANCED_FACE ( 'NONE', ( #1 ), #86, .F. ) ;
#111 = APPLICATION_PROTOCOL_DEFINITION ( 'international standard', 'config_control_design', 1994, #59 ) ;
#112 = APPROVAL_ROLE ( '' ) ;
#113 = APPROVAL_PERSON_ORGANIZATION ( #186, #57, #80 ) ;
#114 = ADVANCED_BREP_SHAPE_REPRESENTATION ( '962860', ( #171, #18, #98 ), #77 ) ;
#115 = APPROVAL_DATE_TIME ( #14, #67 ) ;
#116 = PERSON_AND_ORGANIZATION_ROLE ( 'design_supplier' ) ;
#117 = EDGE_LOOP ( 'NONE', ( #81 ) ) ;
#118 = CALENDAR_DATE ( 2021, 28, 10 ) ;
#119 = ADVANCED_FACE ( 'NONE', ( #39, #124 ), #195, .T. ) ;
#120 = DATE_AND_TIME ( #185, #48 ) ;
#121 = EDGE_LOOP ( 'NONE', ( #169 ) ) ;
#122 = LOCAL_TIME ( 11, 22, 30.00000000000000000, #99 ) ;
#123 = DIRECTION ( 'NONE',  ( 0.0000000000000000000, 1.000000000000000000, 0.0000000000000000000 ) ) ;
#124 = FACE_OUTER_BOUND ( 'NONE', #15, .T. ) ;
#125 = CC_DESIGN_PERSON_AND_ORGANIZATION_ASSIGNMENT ( #156, #66, ( #196 ) ) ;
#126 = CLOSED_SHELL ( 'NONE', ( #191, #223, #110, #142, #194 ) ) ;
#127 = CARTESIAN_POINT ( 'NONE',  ( 2.199633243471174014E-14, 1.124819836996389237E-32, 6.299999999999999822 ) ) ;
#128 = DIRECTION ( 'NONE',  ( -3.491481338843133355E-15, 1.224646799147353207E-16, -1.000000000000000000 ) ) ;
#129 = DIRECTION ( 'NONE',  ( -3.491481338843133355E-15, 1.224646799147353207E-16, -1.000000000000000000 ) ) ;
#130 = CARTESIAN_POINT ( 'NONE',  ( 1.316288464743861212E-13, 1.499999999999995337, 37.69999999999999574 ) ) ;
#131 = CLOSED_SHELL ( 'NONE', ( #139, #119, #143 ) ) ;
#132 = PERSON_AND_ORGANIZATION ( #157, #192 ) ;
#133 = PERSON_AND_ORGANIZATION ( #157, #192 ) ;
#134 = AXIS2_PLACEMENT_3D ( 'NONE', #78, #128, #92 ) ;
#135 = COORDINATED_UNIVERSAL_TIME_OFFSET ( 1, 0, .AHEAD. ) ;
#136 = ORIENTED_EDGE ( 'NONE', *, *, #32, .F. ) ;
#137 = CC_DESIGN_PERSON_AND_ORGANIZATION_ASSIGNMENT ( #12, #153, ( #88 ) ) ;
#138 = APPROVAL_ROLE ( '' ) ;
#139 = ADVANCED_FACE ( 'NONE', ( #73 ), #175, .T. ) ;
#140 = FACE_OUTER_BOUND ( 'NONE', #52, .T. ) ;
#141 = CARTESIAN_POINT ( 'NONE',  ( 1.326762908760390423E-13, 8.998558695971077224E-33, 38.00000000000000000 ) ) ;
#142 = ADVANCED_FACE ( 'NONE', ( #197, #140 ), #209, .T. ) ;
#143 = ADVANCED_FACE ( 'NONE', ( #3 ), #198, .T. ) ;
#144 = LOCAL_TIME ( 11, 22, 30.00000000000000000, #31 ) ;
#145 = DIRECTION ( 'NONE',  ( -4.275831445896958607E-31, -1.000000000000000000, -1.224646799147353207E-16 ) ) ;
#146 = VERTEX_POINT ( 'NONE', #90 ) ;
#147 = EDGE_CURVE ( 'NONE', #61, #61, #161, .T. ) ;
#148 = DIRECTION ( 'NONE',  ( 3.491481338843133355E-15, -1.224646799147353207E-16, 1.000000000000000000 ) ) ;
#149 = AXIS2_PLACEMENT_3D ( 'NONE', #164, #148, #183 ) ;
#150 = FACE_BOUND ( 'NONE', #121, .T. ) ;
#151 = COORDINATED_UNIVERSAL_TIME_OFFSET ( 1, 0, .AHEAD. ) ;
#152 = CC_DESIGN_APPROVAL ( #207, ( #216 ) ) ;
#153 = PERSON_AND_ORGANIZATION_ROLE ( 'creator' ) ;
#154 = ORIENTED_EDGE ( 'NONE', *, *, #5, .F. ) ;
#155 = CIRCLE ( 'NONE', #202, 0.4000000000000000222 ) ;
#156 = PERSON_AND_ORGANIZATION ( #157, #192 ) ;
#157 = PERSON ( 'UNSPECIFIED', 'UNSPECIFIED', 'UNSPECIFIED', ('UNSPECIFIED'), ('UNSPECIFIED'), ('UNSPECIFIED') ) ;
#158 = DIRECTION ( 'NONE',  ( -4.814824860968089633E-31, -1.000000000000000000, -1.355252715606880543E-16 ) ) ;
#159 = DIRECTION ( 'NONE',  ( -3.491481338843133355E-15, 1.229791517316362731E-16, -1.000000000000000000 ) ) ;
#160 = DIRECTION ( 'NONE',  ( 0.0000000000000000000, -1.000000000000000000, 0.0000000000000000000 ) ) ;
#161 = CIRCLE ( 'NONE', #174, 1.499999999999999778 ) ;
#162 = DIRECTION ( 'NONE',  ( -3.491481338843133355E-15, 1.229791517316362731E-16, -1.000000000000000000 ) ) ;
#163 =( LENGTH_UNIT ( ) NAMED_UNIT ( * ) SI_UNIT ( .MILLI., .METRE. ) );
#164 = CARTESIAN_POINT ( 'NONE',  ( 2.199633243471174014E-14, 1.124819836996389237E-32, 6.299999999999999822 ) ) ;
#165 = CARTESIAN_POINT ( 'NONE',  ( 1.316288464743861212E-13, -4.616918432785521081E-15, 37.69999999999999574 ) ) ;
#166 = FACE_OUTER_BOUND ( 'NONE', #53, .T. ) ;
#167 = EDGE_CURVE ( 'NONE', #201, #201, #93, .T. ) ;
#168 = APPROVAL_DATE_TIME ( #36, #207 ) ;
#169 = ORIENTED_EDGE ( 'NONE', *, *, #62, .T. ) ;
#170 = PRODUCT_RELATED_PRODUCT_CATEGORY ( 'detail', '', ( #21 ) ) ;
#171 = MANIFOLD_SOLID_BREP ( 'Corps-Déplacer/Copier1[1]', #126 ) ;
#172 = APPROVAL_STATUS ( 'not_yet_approved' ) ;
#173 = ORIENTED_EDGE ( 'NONE', *, *, #167, .F. ) ;
#174 = AXIS2_PLACEMENT_3D ( 'NONE', #165, #129, #94 ) ;
#175 = PLANE ( 'NONE',  #69 ) ;
#176 = CARTESIAN_POINT ( 'NONE',  ( 3.632975675997698527E-14, -1.279629542696914012E-15, 10.40525588832574755 ) ) ;
#177 = CARTESIAN_POINT ( 'NONE',  ( 0.0000000000000000000, 0.0000000000000000000, 0.0000000000000000000 ) ) ;
#178 = DIRECTION ( 'NONE',  ( 3.491481338843133355E-15, -1.229791517316362731E-16, 1.000000000000000000 ) ) ;
#179 = CARTESIAN_POINT ( 'NONE',  ( 2.199633243471174014E-14, -7.747686559093085377E-16, 6.299999999999999822 ) ) ;
#180 = CYLINDRICAL_SURFACE ( 'NONE', #134, 1.499999999999998002 ) ;
#181 = DIRECTION ( 'NONE',  ( -3.491481338843133355E-15, 1.224646799147353207E-16, -1.000000000000000000 ) ) ;
#182 = CC_DESIGN_PERSON_AND_ORGANIZATION_ASSIGNMENT ( #13, #116, ( #88 ) ) ;
#183 = DIRECTION ( 'NONE',  ( -4.275831445896958607E-31, -1.000000000000000000, -1.224646799147353207E-16 ) ) ;
#184 = CIRCLE ( 'NONE', #35, 1.499999999999998446 ) ;
#185 = CALENDAR_DATE ( 2021, 28, 10 ) ;
#186 = PERSON_AND_ORGANIZATION ( #157, #192 ) ;
#187 = AXIS2_PLACEMENT_3D ( 'NONE', #6, #181, #214 ) ;
#188 = CALENDAR_DATE ( 2021, 28, 10 ) ;
#189 = PERSON_AND_ORGANIZATION_ROLE ( 'creator' ) ;
#190 = DIRECTION ( 'NONE',  ( -3.491481338843133355E-15, 1.229791517316362731E-16, -1.000000000000000000 ) ) ;
#191 = ADVANCED_FACE ( 'NONE', ( #87, #25 ), #180, .T. ) ;
#192 = ORGANIZATION ( 'UNSPECIFIED', 'UNSPECIFIED', '' ) ;
#193 = EDGE_LOOP ( 'NONE', ( #34 ) ) ;
#194 = ADVANCED_FACE ( 'NONE', ( #76 ), #199, .F. ) ;
#195 = CYLINDRICAL_SURFACE ( 'NONE', #82, 0.4000000000000000222 ) ;
#196 = SECURITY_CLASSIFICATION ( '', '', #49 ) ;
#197 = FACE_BOUND ( 'NONE', #101, .T. ) ;
#198 = CONICAL_SURFACE ( 'NONE', #22, 1.499999999999995559, 1.221730476396026388 ) ;
#199 = PLANE ( 'NONE',  #149 ) ;
#200 = MECHANICAL_CONTEXT ( 'NONE', #68, 'mechanical' ) ;
#201 = VERTEX_POINT ( 'NONE', #74 ) ;
#202 = AXIS2_PLACEMENT_3D ( 'NONE', #24, #190, #123 ) ;
#203 = DATE_AND_TIME ( #188, #41 ) ;
#204 = SHAPE_DEFINITION_REPRESENTATION ( #71, #114 ) ;
#205 = DATE_TIME_ROLE ( 'classification_date' ) ;
#206 = APPROVAL_PERSON_ORGANIZATION ( #132, #207, #112 ) ;
#207 = APPROVAL ( #46, 'UNSPECIFIED' ) ;
#208 = ORIENTED_EDGE ( 'NONE', *, *, #32, .T. ) ;
#209 = CONICAL_SURFACE ( 'NONE', #79, 1.499999999999998446, 0.2617993877991501295 ) ;
#210 = CC_DESIGN_PERSON_AND_ORGANIZATION_ASSIGNMENT ( #109, #45, ( #21 ) ) ;
#211 = DIRECTION ( 'NONE',  ( -3.491481338843133355E-15, 1.224646799147353207E-16, -1.000000000000000000 ) ) ;
#212 = DIRECTION ( 'NONE',  ( 3.491481338843133355E-15, -1.224646799147353207E-16, 1.000000000000000000 ) ) ;
#213 = CARTESIAN_POINT ( 'NONE',  ( 1.906192921252232855E-15, -6.686024735685322183E-17, 0.5459553513993090634 ) ) ;
#214 = DIRECTION ( 'NONE',  ( 0.0000000000000000000, 1.000000000000000000, 0.0000000000000000000 ) ) ;
#215 = AXIS2_PLACEMENT_3D ( 'NONE', #20, #84, #158 ) ;
#216 = PRODUCT_DEFINITION ( 'UNKNOWN', '', #88, #30 ) ;
#217 = VERTEX_POINT ( 'NONE', #10 ) ;
#218 = APPROVAL_PERSON_ORGANIZATION ( #102, #67, #138 ) ;
#219 = DATE_TIME_ROLE ( 'creation_date' ) ;
#220 = EDGE_LOOP ( 'NONE', ( #221 ) ) ;
#221 = ORIENTED_EDGE ( 'NONE', *, *, #167, .T. ) ;
#222 = AXIS2_PLACEMENT_3D ( 'NONE', #179, #162, #63 ) ;
#223 = ADVANCED_FACE ( 'NONE', ( #166, #150 ), #44, .T. ) ;
ENDSEC;
END-ISO-10303-21;
