ISO-10303-21;
HEADER;
FILE_DESCRIPTION (( 'STEP AP203' ),
    '1' );
FILE_NAME ('962859.step',
    '2021-10-28T09:22:29',
    ( '' ),
    ( '' ),
    'SwSTEP 2.0',
    'SolidWorks 2019',
    '' );
FILE_SCHEMA (( 'CONFIG_CONTROL_DESIGN' ));
ENDSEC;

DATA;
#1 = APPROVAL_PERSON_ORGANIZATION ( #207, #15, #81 ) ;
#2 = COORDINATED_UNIVERSAL_TIME_OFFSET ( 1, 0, .AHEAD. ) ;
#3 = EDGE_CURVE ( 'NONE', #62, #62, #83, .T. ) ;
#4 = EDGE_LOOP ( 'NONE', ( #172 ) ) ;
#5 = EDGE_LOOP ( 'NONE', ( #54 ) ) ;
#6 = CARTESIAN_POINT ( 'NONE',  ( 1.326762908760390423E-13, -4.653657836759941941E-15, 38.00000000000000000 ) ) ;
#7 = CARTESIAN_POINT ( 'NONE',  ( 1.316288464743861212E-13, -4.616918432785521081E-15, 37.69999999999999574 ) ) ;
#8 = CARTESIAN_POINT ( 'NONE',  ( 4.765482303130592985E-16, -1.671506183921334243E-17, 0.1364888378498275989 ) ) ;
#9 = SECURITY_CLASSIFICATION ( '', '', #16 ) ;
#10 = DIRECTION ( 'NONE',  ( -5.135813185032644414E-31, -1.000000000000000000, -1.445602896647343601E-16 ) ) ;
#11 = CARTESIAN_POINT ( 'NONE',  ( 1.906192921252232855E-15, -6.686024735685322183E-17, 0.5459553513993090634 ) ) ;
#12 = DATE_TIME_ROLE ( 'creation_date' ) ;
#13 = PERSON_AND_ORGANIZATION ( #184, #49 ) ;
#14 = VERTEX_POINT ( 'NONE', #128 ) ;
#15 = APPROVAL ( #112, 'UNSPECIFIED' ) ;
#16 = SECURITY_CLASSIFICATION_LEVEL ( 'unclassified' ) ;
#17 = MANIFOLD_SOLID_BREP ( 'Corps-Déplacer/Copier1[2]', #76 ) ;
#18 = EDGE_LOOP ( 'NONE', ( #50 ) ) ;
#19 = CC_DESIGN_PERSON_AND_ORGANIZATION_ASSIGNMENT ( #13, #70, ( #33 ) ) ;
#20 = DIRECTION ( 'NONE',  ( 3.491481338843133355E-15, -1.224646799147353207E-16, 1.000000000000000000 ) ) ;
#21 = CARTESIAN_POINT ( 'NONE',  ( 1.955229549752154679E-14, 1.124819836996389511E-32, 5.599999999999999645 ) ) ;
#22 = FACE_BOUND ( 'NONE', #18, .T. ) ;
#23 = PRODUCT_RELATED_PRODUCT_CATEGORY ( 'detail', '', ( #37 ) ) ;
#24 = AXIS2_PLACEMENT_3D ( 'NONE', #89, #193, #213 ) ;
#25 = DIRECTION ( 'NONE',  ( -4.275831445896958607E-31, -1.000000000000000000, -1.224646799147353207E-16 ) ) ;
#26 = FACE_OUTER_BOUND ( 'NONE', #152, .T. ) ;
#27 = AXIS2_PLACEMENT_3D ( 'NONE', #161, #196, #195 ) ;
#28 = EDGE_CURVE ( 'NONE', #75, #75, #59, .T. ) ;
#29 = AXIS2_PLACEMENT_3D ( 'NONE', #11, #85, #10 ) ;
#30 = AXIS2_PLACEMENT_3D ( 'NONE', #86, #40, #80 ) ;
#31 = CARTESIAN_POINT ( 'NONE',  ( 1.316288464743861212E-13, 1.499999999999995337, 37.69999999999999574 ) ) ;
#32 = EDGE_LOOP ( 'NONE', ( #117 ) ) ;
#33 = PRODUCT_DEFINITION ( 'UNKNOWN', '', #191, #140 ) ;
#34 = ORIENTED_EDGE ( 'NONE', *, *, #41, .F. ) ;
#35 = CIRCLE ( 'NONE', #167, 0.3750000000000000000 ) ;
#36 = ORIENTED_EDGE ( 'NONE', *, *, #97, .T. ) ;
#37 = PRODUCT ( '962859', '962859', '', ( #218 ) ) ;
#38 = VERTEX_POINT ( 'NONE', #31 ) ;
#39 = AXIS2_PLACEMENT_3D ( 'NONE', #82, #187, #45 ) ;
#40 = DIRECTION ( 'NONE',  ( -3.491481338843133355E-15, 1.229791517316362731E-16, -1.000000000000000000 ) ) ;
#41 = EDGE_CURVE ( 'NONE', #44, #44, #35, .T. ) ;
#42 = CYLINDRICAL_SURFACE ( 'NONE', #216, 1.499999999999997780 ) ;
#43 = DIRECTION ( 'NONE',  ( -5.135813185032628650E-31, -1.000000000000000000, -1.445602896647339163E-16 ) ) ;
#44 = VERTEX_POINT ( 'NONE', #109 ) ;
#45 = DIRECTION ( 'NONE',  ( 1.000000000000000000, 0.0000000000000000000, 0.0000000000000000000 ) ) ;
#46 = APPROVAL_ROLE ( '' ) ;
#47 = PERSON_AND_ORGANIZATION ( #184, #49 ) ;
#48 = DIRECTION ( 'NONE',  ( -3.491481338843133355E-15, 1.224646799147353207E-16, -1.000000000000000000 ) ) ;
#49 = ORGANIZATION ( 'UNSPECIFIED', 'UNSPECIFIED', '' ) ;
#50 = ORIENTED_EDGE ( 'NONE', *, *, #3, .F. ) ;
#51 = CALENDAR_DATE ( 2021, 28, 10 ) ;
#52 = EDGE_LOOP ( 'NONE', ( #34 ) ) ;
#53 = AXIS2_PLACEMENT_3D ( 'NONE', #7, #107, #197 ) ;
#54 = ORIENTED_EDGE ( 'NONE', *, *, #134, .F. ) ;
#55 = EDGE_LOOP ( 'NONE', ( #135 ) ) ;
#56 = VERTEX_POINT ( 'NONE', #118 ) ;
#57 = ADVANCED_FACE ( 'NONE', ( #122, #141 ), #159, .T. ) ;
#58 = DIRECTION ( 'NONE',  ( 0.0000000000000000000, -1.000000000000000000, 0.0000000000000000000 ) ) ;
#59 = CIRCLE ( 'NONE', #63, 1.199999999999999956 ) ;
#60 = DIRECTION ( 'NONE',  ( 0.0000000000000000000, 1.000000000000000000, 0.0000000000000000000 ) ) ;
#61 = DIRECTION ( 'NONE',  ( 3.491481338843133355E-15, -1.224646799147353207E-16, 1.000000000000000000 ) ) ;
#62 = VERTEX_POINT ( 'NONE', #157 ) ;
#63 = AXIS2_PLACEMENT_3D ( 'NONE', #6, #48, #96 ) ;
#64 = DATE_AND_TIME ( #217, #194 ) ;
#65 = EDGE_CURVE ( 'NONE', #56, #56, #219, .T. ) ;
#66 = APPROVAL ( #183, 'UNSPECIFIED' ) ;
#67 = DATE_AND_TIME ( #90, #204 ) ;
#68 =( NAMED_UNIT ( * ) SI_UNIT ( $, .STERADIAN. ) SOLID_ANGLE_UNIT ( ) );
#69 = CC_DESIGN_PERSON_AND_ORGANIZATION_ASSIGNMENT ( #189, #98, ( #37 ) ) ;
#70 = PERSON_AND_ORGANIZATION_ROLE ( 'creator' ) ;
#71 = EDGE_LOOP ( 'NONE', ( #188 ) ) ;
#72 = EDGE_LOOP ( 'NONE', ( #209 ) ) ;
#73 = ORIENTED_EDGE ( 'NONE', *, *, #41, .T. ) ;
#74 = FACE_OUTER_BOUND ( 'NONE', #5, .T. ) ;
#75 = VERTEX_POINT ( 'NONE', #123 ) ;
#76 = CLOSED_SHELL ( 'NONE', ( #142, #222, #169 ) ) ;
#77 = CARTESIAN_POINT ( 'NONE',  ( 1.955229549752154679E-14, -6.886832496971631884E-16, 5.599999999999999645 ) ) ;
#78 = CC_DESIGN_DATE_AND_TIME_ASSIGNMENT ( #164, #12, ( #33 ) ) ;
#79 = CARTESIAN_POINT ( 'NONE',  ( 0.0000000000000000000, 0.0000000000000000000, 0.0000000000000000000 ) ) ;
#80 = DIRECTION ( 'NONE',  ( 4.293794133377663121E-31, 1.000000000000000000, 1.229791517316362731E-16 ) ) ;
#81 = APPROVAL_ROLE ( '' ) ;
#82 = CARTESIAN_POINT ( 'NONE',  ( 0.0000000000000000000, 0.0000000000000000000, 0.0000000000000000000 ) ) ;
#83 = CIRCLE ( 'NONE', #119, 0.3750000000000000000 ) ;
#84 = APPROVAL_PERSON_ORGANIZATION ( #47, #138, #223 ) ;
#85 = DIRECTION ( 'NONE',  ( 3.491481338843133355E-15, -1.224646799147353207E-16, 1.000000000000000000 ) ) ;
#86 = CARTESIAN_POINT ( 'NONE',  ( 0.0000000000000000000, 0.0000000000000000000, 0.0000000000000000000 ) ) ;
#87 = FACE_OUTER_BOUND ( 'NONE', #71, .T. ) ;
#88 = FACE_OUTER_BOUND ( 'NONE', #133, .T. ) ;
#89 = CARTESIAN_POINT ( 'NONE',  ( 3.421147946654282065E-14, -1.205018247548123597E-15, 9.798557158514970666 ) ) ;
#90 = CALENDAR_DATE ( 2021, 28, 10 ) ;
#91 = CC_DESIGN_SECURITY_CLASSIFICATION ( #9, ( #191 ) ) ;
#92 = APPROVAL_STATUS ( 'not_yet_approved' ) ;
#93 = ADVANCED_BREP_SHAPE_REPRESENTATION ( '962859', ( #171, #17, #39 ), #105 ) ;
#94 = AXIS2_PLACEMENT_3D ( 'NONE', #77, #211, #60 ) ;
#95 = PERSON_AND_ORGANIZATION ( #184, #49 ) ;
#96 = DIRECTION ( 'NONE',  ( 0.0000000000000000000, 1.000000000000000000, 0.0000000000000000000 ) ) ;
#97 = EDGE_CURVE ( 'NONE', #38, #38, #147, .T. ) ;
#98 = PERSON_AND_ORGANIZATION_ROLE ( 'design_owner' ) ;
#99 = PERSON_AND_ORGANIZATION ( #184, #49 ) ;
#100 = LOCAL_TIME ( 11, 22, 29.00000000000000000, #185 ) ;
#101 = CC_DESIGN_DATE_AND_TIME_ASSIGNMENT ( #64, #124, ( #9 ) ) ;
#102 = CALENDAR_DATE ( 2021, 28, 10 ) ;
#103 = CARTESIAN_POINT ( 'NONE',  ( 1.955229549752154679E-14, -6.886832496971631884E-16, 5.599999999999999645 ) ) ;
#104 = PLANE ( 'NONE',  #165 ) ;
#105 =( GEOMETRIC_REPRESENTATION_CONTEXT ( 3 ) GLOBAL_UNCERTAINTY_ASSIGNED_CONTEXT ( ( #163 ) ) GLOBAL_UNIT_ASSIGNED_CONTEXT ( ( #111, #127, #68 ) ) REPRESENTATION_CONTEXT ( 'NONE', 'WORKASPACE' ) );
#106 = COORDINATED_UNIVERSAL_TIME_OFFSET ( 1, 0, .AHEAD. ) ;
#107 = DIRECTION ( 'NONE',  ( -3.491481338843133355E-15, 1.224646799147353207E-16, -1.000000000000000000 ) ) ;
#108 = PLANE ( 'NONE',  #198 ) ;
#109 = CARTESIAN_POINT ( 'NONE',  ( 4.765482303130591013E-16, -0.3750000000000000000, 0.1364888378498275434 ) ) ;
#110 = PERSON_AND_ORGANIZATION_ROLE ( 'classification_officer' ) ;
#111 =( LENGTH_UNIT ( ) NAMED_UNIT ( * ) SI_UNIT ( .MILLI., .METRE. ) );
#112 = APPROVAL_STATUS ( 'not_yet_approved' ) ;
#113 = ADVANCED_FACE ( 'NONE', ( #182 ), #108, .F. ) ;
#114 = APPROVAL_DATE_TIME ( #146, #15 ) ;
#115 = CC_DESIGN_PERSON_AND_ORGANIZATION_ASSIGNMENT ( #99, #170, ( #191 ) ) ;
#116 = DATE_AND_TIME ( #102, #132 ) ;
#117 = ORIENTED_EDGE ( 'NONE', *, *, #3, .T. ) ;
#118 = CARTESIAN_POINT ( 'NONE',  ( 3.421147946654282065E-14, 1.499999999999997113, 9.798557158514970666 ) ) ;
#119 = AXIS2_PLACEMENT_3D ( 'NONE', #103, #173, #155 ) ;
#120 = CYLINDRICAL_SURFACE ( 'NONE', #30, 0.3750000000000000000 ) ;
#121 = CARTESIAN_POINT ( 'NONE',  ( 1.326762908760390423E-13, 8.998558695971077224E-33, 38.00000000000000000 ) ) ;
#122 = FACE_OUTER_BOUND ( 'NONE', #72, .T. ) ;
#123 = CARTESIAN_POINT ( 'NONE',  ( 1.326762908760390423E-13, 1.199999999999995293, 38.00000000000000000 ) ) ;
#124 = DATE_TIME_ROLE ( 'classification_date' ) ;
#125 = CLOSED_SHELL ( 'NONE', ( #176, #57, #113, #214, #153 ) ) ;
#126 = CC_DESIGN_APPROVAL ( #66, ( #9 ) ) ;
#127 =( NAMED_UNIT ( * ) PLANE_ANGLE_UNIT ( ) SI_UNIT ( $, .RADIAN. ) );
#128 = CARTESIAN_POINT ( 'NONE',  ( 1.955229549752154679E-14, 0.3749999999999992784, 5.599999999999999645 ) ) ;
#129 = CALENDAR_DATE ( 2021, 28, 10 ) ;
#130 = EDGE_LOOP ( 'NONE', ( #186 ) ) ;
#131 = ORIENTED_EDGE ( 'NONE', *, *, #65, .F. ) ;
#132 = LOCAL_TIME ( 11, 22, 29.00000000000000000, #106 ) ;
#133 = EDGE_LOOP ( 'NONE', ( #73 ) ) ;
#134 = EDGE_CURVE ( 'NONE', #14, #14, #174, .T. ) ;
#135 = ORIENTED_EDGE ( 'NONE', *, *, #28, .T. ) ;
#136 = CARTESIAN_POINT ( 'NONE',  ( 1.955229549752154679E-14, 1.124819836996389511E-32, 5.599999999999999645 ) ) ;
#137 = DIRECTION ( 'NONE',  ( -4.275831445896958607E-31, -1.000000000000000000, -1.224646799147353207E-16 ) ) ;
#138 = APPROVAL ( #92, 'UNSPECIFIED' ) ;
#139 = CC_DESIGN_PERSON_AND_ORGANIZATION_ASSIGNMENT ( #149, #110, ( #9 ) ) ;
#140 = DESIGN_CONTEXT ( 'detailed design', #205, 'design' ) ;
#141 = FACE_BOUND ( 'NONE', #55, .T. ) ;
#142 = ADVANCED_FACE ( 'NONE', ( #74 ), #175, .T. ) ;
#143 = APPLICATION_CONTEXT ( 'configuration controlled 3d designs of mechanical parts and assemblies' ) ;
#144 = DIRECTION ( 'NONE',  ( -3.491481338843133355E-15, 1.224646799147353207E-16, -1.000000000000000000 ) ) ;
#145 = COORDINATED_UNIVERSAL_TIME_OFFSET ( 1, 0, .AHEAD. ) ;
#146 = DATE_AND_TIME ( #51, #100 ) ;
#147 = CIRCLE ( 'NONE', #53, 1.499999999999999778 ) ;
#148 = APPLICATION_PROTOCOL_DEFINITION ( 'international standard', 'config_control_design', 1994, #143 ) ;
#149 = PERSON_AND_ORGANIZATION ( #184, #49 ) ;
#150 = CONICAL_SURFACE ( 'NONE', #29, 1.499999999999995559, 1.221730476396026388 ) ;
#151 = APPLICATION_PROTOCOL_DEFINITION ( 'international standard', 'config_control_design', 1994, #205 ) ;
#152 = EDGE_LOOP ( 'NONE', ( #36 ) ) ;
#153 = ADVANCED_FACE ( 'NONE', ( #156 ), #104, .F. ) ;
#154 = CC_DESIGN_APPROVAL ( #15, ( #191 ) ) ;
#155 = DIRECTION ( 'NONE',  ( 0.0000000000000000000, 1.000000000000000000, 0.0000000000000000000 ) ) ;
#156 = FACE_OUTER_BOUND ( 'NONE', #32, .T. ) ;
#157 = CARTESIAN_POINT ( 'NONE',  ( 1.955229549752154679E-14, 0.3749999999999992784, 5.599999999999999645 ) ) ;
#158 = CC_DESIGN_PERSON_AND_ORGANIZATION_ASSIGNMENT ( #95, #168, ( #191 ) ) ;
#159 = CONICAL_SURFACE ( 'NONE', #27, 1.199999999999999956, 0.7853981633974453924 ) ;
#160 = FACE_OUTER_BOUND ( 'NONE', #52, .T. ) ;
#161 = CARTESIAN_POINT ( 'NONE',  ( 1.326762908760390423E-13, -4.653657836759941941E-15, 38.00000000000000000 ) ) ;
#162 = DIRECTION ( 'NONE',  ( 4.275831445896959482E-31, 1.000000000000000000, 1.224646799147353207E-16 ) ) ;
#163 = UNCERTAINTY_MEASURE_WITH_UNIT (LENGTH_MEASURE( 1.000000000000000082E-05 ), #111, 'distance_accuracy_value', 'NONE');
#164 = DATE_AND_TIME ( #129, #206 ) ;
#165 = AXIS2_PLACEMENT_3D ( 'NONE', #136, #20, #137 ) ;
#166 = APPROVAL_DATE_TIME ( #67, #138 ) ;
#167 = AXIS2_PLACEMENT_3D ( 'NONE', #8, #179, #43 ) ;
#168 = PERSON_AND_ORGANIZATION_ROLE ( 'creator' ) ;
#169 = ADVANCED_FACE ( 'NONE', ( #88 ), #150, .T. ) ;
#170 = PERSON_AND_ORGANIZATION_ROLE ( 'design_supplier' ) ;
#171 = MANIFOLD_SOLID_BREP ( 'Corps-Déplacer/Copier1[1]', #125 ) ;
#172 = ORIENTED_EDGE ( 'NONE', *, *, #28, .F. ) ;
#173 = DIRECTION ( 'NONE',  ( -3.491481338843133355E-15, 1.229791517316362731E-16, -1.000000000000000000 ) ) ;
#174 = CIRCLE ( 'NONE', #94, 0.3750000000000000000 ) ;
#175 = PLANE ( 'NONE',  #202 ) ;
#176 = ADVANCED_FACE ( 'NONE', ( #178, #26 ), #42, .T. ) ;
#177 = SHAPE_DEFINITION_REPRESENTATION ( #220, #93 ) ;
#178 = FACE_OUTER_BOUND ( 'NONE', #192, .T. ) ;
#179 = DIRECTION ( 'NONE',  ( -3.491481338843133355E-15, 1.224646799147353207E-16, -1.000000000000000000 ) ) ;
#180 = DIRECTION ( 'NONE',  ( -3.491481338843133355E-15, 1.224646799147353207E-16, -1.000000000000000000 ) ) ;
#181 = CONICAL_SURFACE ( 'NONE', #208, 1.499999999999998446, 0.2617993877991500740 ) ;
#182 = FACE_OUTER_BOUND ( 'NONE', #4, .T. ) ;
#183 = APPROVAL_STATUS ( 'not_yet_approved' ) ;
#184 = PERSON ( 'UNSPECIFIED', 'UNSPECIFIED', 'UNSPECIFIED', ('UNSPECIFIED'), ('UNSPECIFIED'), ('UNSPECIFIED') ) ;
#185 = COORDINATED_UNIVERSAL_TIME_OFFSET ( 1, 0, .AHEAD. ) ;
#186 = ORIENTED_EDGE ( 'NONE', *, *, #134, .T. ) ;
#187 = DIRECTION ( 'NONE',  ( 0.0000000000000000000, 0.0000000000000000000, 1.000000000000000000 ) ) ;
#188 = ORIENTED_EDGE ( 'NONE', *, *, #65, .T. ) ;
#189 = PERSON_AND_ORGANIZATION ( #184, #49 ) ;
#190 = APPROVAL_DATE_TIME ( #116, #66 ) ;
#191 = PRODUCT_DEFINITION_FORMATION_WITH_SPECIFIED_SOURCE ( 'ANY', '', #37, .NOT_KNOWN. ) ;
#192 = EDGE_LOOP ( 'NONE', ( #131 ) ) ;
#193 = DIRECTION ( 'NONE',  ( -3.491481338843133355E-15, 1.229791517316362731E-16, -1.000000000000000000 ) ) ;
#194 = LOCAL_TIME ( 11, 22, 29.00000000000000000, #145 ) ;
#195 = DIRECTION ( 'NONE',  ( 0.0000000000000000000, 1.000000000000000000, 0.0000000000000000000 ) ) ;
#196 = DIRECTION ( 'NONE',  ( -3.491481338843133355E-15, 1.224646799147353207E-16, -1.000000000000000000 ) ) ;
#197 = DIRECTION ( 'NONE',  ( 0.0000000000000000000, 1.000000000000000000, 0.0000000000000000000 ) ) ;
#198 = AXIS2_PLACEMENT_3D ( 'NONE', #121, #180, #212 ) ;
#199 = FACE_OUTER_BOUND ( 'NONE', #130, .T. ) ;
#200 = PERSON_AND_ORGANIZATION ( #184, #49 ) ;
#201 = COORDINATED_UNIVERSAL_TIME_OFFSET ( 1, 0, .AHEAD. ) ;
#202 = AXIS2_PLACEMENT_3D ( 'NONE', #21, #61, #25 ) ;
#203 = CC_DESIGN_APPROVAL ( #138, ( #33 ) ) ;
#204 = LOCAL_TIME ( 11, 22, 29.00000000000000000, #2 ) ;
#205 = APPLICATION_CONTEXT ( 'configuration controlled 3d designs of mechanical parts and assemblies' ) ;
#206 = LOCAL_TIME ( 11, 22, 29.00000000000000000, #201 ) ;
#207 = PERSON_AND_ORGANIZATION ( #184, #49 ) ;
#208 = AXIS2_PLACEMENT_3D ( 'NONE', #215, #210, #58 ) ;
#209 = ORIENTED_EDGE ( 'NONE', *, *, #97, .F. ) ;
#210 = DIRECTION ( 'NONE',  ( 3.491481338843133355E-15, -1.229791517316362731E-16, 1.000000000000000000 ) ) ;
#211 = DIRECTION ( 'NONE',  ( -3.491481338843133355E-15, 1.229791517316362731E-16, -1.000000000000000000 ) ) ;
#212 = DIRECTION ( 'NONE',  ( 4.275831445896958607E-31, 1.000000000000000000, 1.224646799147353207E-16 ) ) ;
#213 = DIRECTION ( 'NONE',  ( 0.0000000000000000000, 1.000000000000000000, 0.0000000000000000000 ) ) ;
#214 = ADVANCED_FACE ( 'NONE', ( #22, #87 ), #181, .T. ) ;
#215 = CARTESIAN_POINT ( 'NONE',  ( 3.421147946654282065E-14, -1.205018247548123597E-15, 9.798557158514970666 ) ) ;
#216 = AXIS2_PLACEMENT_3D ( 'NONE', #79, #144, #162 ) ;
#217 = CALENDAR_DATE ( 2021, 28, 10 ) ;
#218 = MECHANICAL_CONTEXT ( 'NONE', #143, 'mechanical' ) ;
#219 = CIRCLE ( 'NONE', #24, 1.499999999999998446 ) ;
#220 = PRODUCT_DEFINITION_SHAPE ( 'NONE', 'NONE',  #33 ) ;
#221 = APPROVAL_PERSON_ORGANIZATION ( #200, #66, #46 ) ;
#222 = ADVANCED_FACE ( 'NONE', ( #199, #160 ), #120, .T. ) ;
#223 = APPROVAL_ROLE ( '' ) ;
ENDSEC;
END-ISO-10303-21;
