ISO-10303-21;
HEADER;
FILE_DESCRIPTION (( 'STEP AP203' ),
    '1' );
FILE_NAME ('962858.step',
    '2021-10-28T09:22:29',
    ( '' ),
    ( '' ),
    'SwSTEP 2.0',
    'SolidWorks 2019',
    '' );
FILE_SCHEMA (( 'CONFIG_CONTROL_DESIGN' ));
ENDSEC;

DATA;
#1 = LOCAL_TIME ( 11, 22, 29.00000000000000000, #51 ) ;
#2 = PERSON_AND_ORGANIZATION_ROLE ( 'creator' ) ;
#3 = CIRCLE ( 'NONE', #209, 1.199999999999999956 ) ;
#4 = DIRECTION ( 'NONE',  ( 1.000000000000000000, 0.0000000000000000000, 0.0000000000000000000 ) ) ;
#5 = ADVANCED_FACE ( 'NONE', ( #204 ), #16, .F. ) ;
#6 =( NAMED_UNIT ( * ) SI_UNIT ( $, .STERADIAN. ) SOLID_ANGLE_UNIT ( ) );
#7 = PRODUCT_DEFINITION ( 'UNKNOWN', '', #128, #178 ) ;
#8 = COORDINATED_UNIVERSAL_TIME_OFFSET ( 1, 0, .AHEAD. ) ;
#9 = ORIENTED_EDGE ( 'NONE', *, *, #50, .F. ) ;
#10 = APPLICATION_CONTEXT ( 'configuration controlled 3d designs of mechanical parts and assemblies' ) ;
#11 = ORIENTED_EDGE ( 'NONE', *, *, #63, .F. ) ;
#12 = ADVANCED_FACE ( 'NONE', ( #223 ), #160, .T. ) ;
#13 = AXIS2_PLACEMENT_3D ( 'NONE', #47, #84, #103 ) ;
#14 = EDGE_LOOP ( 'NONE', ( #15 ) ) ;
#15 = ORIENTED_EDGE ( 'NONE', *, *, #50, .T. ) ;
#16 = PLANE ( 'NONE',  #13 ) ;
#17 = CARTESIAN_POINT ( 'NONE',  ( 1.955229549752154679E-14, 1.124819836996389511E-32, 5.599999999999999645 ) ) ;
#18 = DIRECTION ( 'NONE',  ( -3.491481338843133355E-15, 1.229791517316362731E-16, -1.000000000000000000 ) ) ;
#19 = APPROVAL_STATUS ( 'not_yet_approved' ) ;
#20 = LOCAL_TIME ( 11, 22, 29.00000000000000000, #8 ) ;
#21 = VERTEX_POINT ( 'NONE', #143 ) ;
#22 = CALENDAR_DATE ( 2021, 28, 10 ) ;
#23 = DATE_AND_TIME ( #22, #41 ) ;
#24 = CC_DESIGN_DATE_AND_TIME_ASSIGNMENT ( #71, #208, ( #7 ) ) ;
#25 = ORIENTED_EDGE ( 'NONE', *, *, #63, .T. ) ;
#26 = DATE_AND_TIME ( #97, #20 ) ;
#27 = DIRECTION ( 'NONE',  ( 3.491481338843133355E-15, -1.224646799147353207E-16, 1.000000000000000000 ) ) ;
#28 = DIRECTION ( 'NONE',  ( 0.0000000000000000000, -1.000000000000000000, 0.0000000000000000000 ) ) ;
#29 = DIRECTION ( 'NONE',  ( 0.0000000000000000000, 1.000000000000000000, 0.0000000000000000000 ) ) ;
#30 = AXIS2_PLACEMENT_3D ( 'NONE', #17, #27, #119 ) ;
#31 = LOCAL_TIME ( 11, 22, 29.00000000000000000, #75 ) ;
#32 = CARTESIAN_POINT ( 'NONE',  ( 3.447208718154764110E-14, -1.214197536398807111E-15, 9.873198174666347526 ) ) ;
#33 = APPLICATION_PROTOCOL_DEFINITION ( 'international standard', 'config_control_design', 1994, #58 ) ;
#34 = AXIS2_PLACEMENT_3D ( 'NONE', #136, #83, #45 ) ;
#35 = AXIS2_PLACEMENT_3D ( 'NONE', #220, #18, #166 ) ;
#36 = COORDINATED_UNIVERSAL_TIME_OFFSET ( 1, 0, .AHEAD. ) ;
#37 = APPROVAL ( #19, 'UNSPECIFIED' ) ;
#38 = CARTESIAN_POINT ( 'NONE',  ( 1.316288464743861212E-13, 1.499999999999995337, 37.69999999999999574 ) ) ;
#39 = AXIS2_PLACEMENT_3D ( 'NONE', #168, #85, #187 ) ;
#40 = UNCERTAINTY_MEASURE_WITH_UNIT (LENGTH_MEASURE( 1.000000000000000082E-05 ), #49, 'distance_accuracy_value', 'NONE');
#41 = LOCAL_TIME ( 11, 22, 29.00000000000000000, #172 ) ;
#42 = ORIENTED_EDGE ( 'NONE', *, *, #196, .F. ) ;
#43 = CC_DESIGN_PERSON_AND_ORGANIZATION_ASSIGNMENT ( #74, #114, ( #128 ) ) ;
#44 = CARTESIAN_POINT ( 'NONE',  ( 3.447208718154764110E-14, -1.214197536398807111E-15, 9.873198174666347526 ) ) ;
#45 = DIRECTION ( 'NONE',  ( 4.293794133377661370E-31, 1.000000000000000000, 1.229791517316362484E-16 ) ) ;
#46 = DIRECTION ( 'NONE',  ( -3.491481338843133355E-15, 1.229791517316362731E-16, -1.000000000000000000 ) ) ;
#47 = CARTESIAN_POINT ( 'NONE',  ( 1.326762908760390423E-13, 8.998558695971077224E-33, 38.00000000000000000 ) ) ;
#48 = CC_DESIGN_DATE_AND_TIME_ASSIGNMENT ( #59, #195, ( #183 ) ) ;
#49 =( LENGTH_UNIT ( ) NAMED_UNIT ( * ) SI_UNIT ( .MILLI., .METRE. ) );
#50 = EDGE_CURVE ( 'NONE', #107, #107, #163, .T. ) ;
#51 = COORDINATED_UNIVERSAL_TIME_OFFSET ( 1, 0, .AHEAD. ) ;
#52 = PERSON_AND_ORGANIZATION ( #185, #165 ) ;
#53 = CARTESIAN_POINT ( 'NONE',  ( 1.955229549752154679E-14, 0.3549999999999992606, 5.599999999999999645 ) ) ;
#54 = EDGE_CURVE ( 'NONE', #175, #175, #197, .T. ) ;
#55 =( NAMED_UNIT ( * ) PLANE_ANGLE_UNIT ( ) SI_UNIT ( $, .RADIAN. ) );
#56 = PRODUCT_RELATED_PRODUCT_CATEGORY ( 'detail', '', ( #130 ) ) ;
#57 = APPROVAL_PERSON_ORGANIZATION ( #129, #193, #115 ) ;
#58 = APPLICATION_CONTEXT ( 'configuration controlled 3d designs of mechanical parts and assemblies' ) ;
#59 = DATE_AND_TIME ( #127, #31 ) ;
#60 = ORIENTED_EDGE ( 'NONE', *, *, #54, .T. ) ;
#61 = CIRCLE ( 'NONE', #188, 0.3549999999999999822 ) ;
#62 = CC_DESIGN_APPROVAL ( #162, ( #128 ) ) ;
#63 = EDGE_CURVE ( 'NONE', #92, #92, #3, .T. ) ;
#64 = DIRECTION ( 'NONE',  ( -5.425154772921791407E-31, -1.000000000000000000, -1.527045313359865476E-16 ) ) ;
#65 = DIRECTION ( 'NONE',  ( -3.491481338843133355E-15, 1.224646799147353207E-16, -1.000000000000000000 ) ) ;
#66 = FACE_OUTER_BOUND ( 'NONE', #122, .T. ) ;
#67 = FACE_OUTER_BOUND ( 'NONE', #138, .T. ) ;
#68 = PLANE ( 'NONE',  #30 ) ;
#69 = CONICAL_SURFACE ( 'NONE', #150, 1.199999999999999956, 0.7853981633974453924 ) ;
#70 = APPROVAL_PERSON_ORGANIZATION ( #171, #37, #207 ) ;
#71 = DATE_AND_TIME ( #155, #216 ) ;
#72 = APPLICATION_PROTOCOL_DEFINITION ( 'international standard', 'config_control_design', 1994, #10 ) ;
#73 =( GEOMETRIC_REPRESENTATION_CONTEXT ( 3 ) GLOBAL_UNCERTAINTY_ASSIGNED_CONTEXT ( ( #40 ) ) GLOBAL_UNIT_ASSIGNED_CONTEXT ( ( #49, #55, #6 ) ) REPRESENTATION_CONTEXT ( 'NONE', 'WORKASPACE' ) );
#74 = PERSON_AND_ORGANIZATION ( #185, #165 ) ;
#75 = COORDINATED_UNIVERSAL_TIME_OFFSET ( 1, 0, .AHEAD. ) ;
#76 = SHAPE_DEFINITION_REPRESENTATION ( #110, #104 ) ;
#77 = PERSON_AND_ORGANIZATION ( #185, #165 ) ;
#78 = EDGE_LOOP ( 'NONE', ( #11 ) ) ;
#79 = CLOSED_SHELL ( 'NONE', ( #101, #147, #12 ) ) ;
#80 = AXIS2_PLACEMENT_3D ( 'NONE', #169, #120, #202 ) ;
#81 = APPROVAL_PERSON_ORGANIZATION ( #52, #162, #173 ) ;
#82 = EDGE_LOOP ( 'NONE', ( #9 ) ) ;
#83 = DIRECTION ( 'NONE',  ( -3.491481338843133355E-15, 1.229791517316362731E-16, -1.000000000000000000 ) ) ;
#84 = DIRECTION ( 'NONE',  ( -3.491481338843133355E-15, 1.224646799147353207E-16, -1.000000000000000000 ) ) ;
#85 = DIRECTION ( 'NONE',  ( 3.491481338843133355E-15, -1.224646799147353207E-16, 1.000000000000000000 ) ) ;
#86 = CARTESIAN_POINT ( 'NONE',  ( 1.316288464743861212E-13, -4.616918432785521081E-15, 37.69999999999999574 ) ) ;
#87 = CARTESIAN_POINT ( 'NONE',  ( 1.955229549752154679E-14, -6.886832496971631884E-16, 5.599999999999999645 ) ) ;
#88 = MECHANICAL_CONTEXT ( 'NONE', #10, 'mechanical' ) ;
#89 = PERSON_AND_ORGANIZATION ( #185, #165 ) ;
#90 = FACE_BOUND ( 'NONE', #200, .T. ) ;
#91 = VERTEX_POINT ( 'NONE', #38 ) ;
#92 = VERTEX_POINT ( 'NONE', #124 ) ;
#93 = PERSON_AND_ORGANIZATION_ROLE ( 'classification_officer' ) ;
#94 = AXIS2_PLACEMENT_3D ( 'NONE', #184, #99, #64 ) ;
#95 = APPROVAL_DATE_TIME ( #26, #193 ) ;
#96 = EDGE_LOOP ( 'NONE', ( #214 ) ) ;
#97 = CALENDAR_DATE ( 2021, 28, 10 ) ;
#98 = AXIS2_PLACEMENT_3D ( 'NONE', #211, #170, #4 ) ;
#99 = DIRECTION ( 'NONE',  ( -3.491481338843133355E-15, 1.224646799147353207E-16, -1.000000000000000000 ) ) ;
#100 = DIRECTION ( 'NONE',  ( -3.491481338843133355E-15, 1.224646799147353207E-16, -1.000000000000000000 ) ) ;
#101 = ADVANCED_FACE ( 'NONE', ( #105 ), #68, .T. ) ;
#102 = ORIENTED_EDGE ( 'NONE', *, *, #117, .F. ) ;
#103 = DIRECTION ( 'NONE',  ( 4.275831445896958607E-31, 1.000000000000000000, 1.224646799147353207E-16 ) ) ;
#104 = ADVANCED_BREP_SHAPE_REPRESENTATION ( '962858', ( #137, #213, #98 ), #73 ) ;
#105 = FACE_OUTER_BOUND ( 'NONE', #145, .T. ) ;
#106 = CARTESIAN_POINT ( 'NONE',  ( 1.326762908760390423E-13, -4.653657836759941941E-15, 38.00000000000000000 ) ) ;
#107 = VERTEX_POINT ( 'NONE', #53 ) ;
#108 = APPROVAL_STATUS ( 'not_yet_approved' ) ;
#109 = CARTESIAN_POINT ( 'NONE',  ( 4.511323246963625778E-16, -0.3549999999999999822, 0.1292094331645033678 ) ) ;
#110 = PRODUCT_DEFINITION_SHAPE ( 'NONE', 'NONE',  #7 ) ;
#111 = CC_DESIGN_PERSON_AND_ORGANIZATION_ASSIGNMENT ( #77, #131, ( #128 ) ) ;
#112 = ORIENTED_EDGE ( 'NONE', *, *, #196, .T. ) ;
#113 = ADVANCED_FACE ( 'NONE', ( #218, #67 ), #134, .T. ) ;
#114 = PERSON_AND_ORGANIZATION_ROLE ( 'creator' ) ;
#115 = APPROVAL_ROLE ( '' ) ;
#116 = PLANE ( 'NONE',  #215 ) ;
#117 = EDGE_CURVE ( 'NONE', #91, #91, #156, .T. ) ;
#118 = DIRECTION ( 'NONE',  ( 3.491481338843133355E-15, -1.229791517316362731E-16, 1.000000000000000000 ) ) ;
#119 = DIRECTION ( 'NONE',  ( -4.275831445896958607E-31, -1.000000000000000000, -1.224646799147353207E-16 ) ) ;
#120 = DIRECTION ( 'NONE',  ( -3.491481338843133355E-15, 1.224646799147353207E-16, -1.000000000000000000 ) ) ;
#121 = CC_DESIGN_PERSON_AND_ORGANIZATION_ASSIGNMENT ( #154, #190, ( #130 ) ) ;
#122 = EDGE_LOOP ( 'NONE', ( #151 ) ) ;
#123 = APPROVAL_DATE_TIME ( #192, #37 ) ;
#124 = CARTESIAN_POINT ( 'NONE',  ( 1.326762908760390423E-13, 1.199999999999995293, 38.00000000000000000 ) ) ;
#125 = VERTEX_POINT ( 'NONE', #109 ) ;
#126 = CARTESIAN_POINT ( 'NONE',  ( 3.447208718154764110E-14, 1.499999999999997113, 9.873198174666347526 ) ) ;
#127 = CALENDAR_DATE ( 2021, 28, 10 ) ;
#128 = PRODUCT_DEFINITION_FORMATION_WITH_SPECIFIED_SOURCE ( 'ANY', '', #130, .NOT_KNOWN. ) ;
#129 = PERSON_AND_ORGANIZATION ( #185, #165 ) ;
#130 = PRODUCT ( '962858', '962858', '', ( #88 ) ) ;
#131 = PERSON_AND_ORGANIZATION_ROLE ( 'design_supplier' ) ;
#132 = FACE_BOUND ( 'NONE', #82, .T. ) ;
#133 = CIRCLE ( 'NONE', #94, 0.3549999999999999822 ) ;
#134 = CYLINDRICAL_SURFACE ( 'NONE', #80, 1.499999999999997780 ) ;
#135 = EDGE_CURVE ( 'NONE', #21, #21, #61, .T. ) ;
#136 = CARTESIAN_POINT ( 'NONE',  ( 0.0000000000000000000, 0.0000000000000000000, 0.0000000000000000000 ) ) ;
#137 = MANIFOLD_SOLID_BREP ( 'Corps-Déplacer/Copier1[1]', #174 ) ;
#138 = EDGE_LOOP ( 'NONE', ( #144 ) ) ;
#139 = FACE_OUTER_BOUND ( 'NONE', #14, .T. ) ;
#140 = DIRECTION ( 'NONE',  ( -3.491481338843133355E-15, 1.224646799147353207E-16, -1.000000000000000000 ) ) ;
#141 = CALENDAR_DATE ( 2021, 28, 10 ) ;
#142 = DIRECTION ( 'NONE',  ( 0.0000000000000000000, 1.000000000000000000, 0.0000000000000000000 ) ) ;
#143 = CARTESIAN_POINT ( 'NONE',  ( 1.955229549752154679E-14, 0.3549999999999992606, 5.599999999999999645 ) ) ;
#144 = ORIENTED_EDGE ( 'NONE', *, *, #117, .T. ) ;
#145 = EDGE_LOOP ( 'NONE', ( #181 ) ) ;
#146 = AXIS2_PLACEMENT_3D ( 'NONE', #86, #100, #206 ) ;
#147 = ADVANCED_FACE ( 'NONE', ( #66, #222 ), #182, .T. ) ;
#148 = CARTESIAN_POINT ( 'NONE',  ( 1.326762908760390423E-13, -4.653657836759941941E-15, 38.00000000000000000 ) ) ;
#149 = DIRECTION ( 'NONE',  ( -3.491481338843133355E-15, 1.229791517316362731E-16, -1.000000000000000000 ) ) ;
#150 = AXIS2_PLACEMENT_3D ( 'NONE', #106, #140, #142 ) ;
#151 = ORIENTED_EDGE ( 'NONE', *, *, #135, .T. ) ;
#152 = DIRECTION ( 'NONE',  ( 3.491481338843133355E-15, -1.224646799147353207E-16, 1.000000000000000000 ) ) ;
#153 = DIRECTION ( 'NONE',  ( 0.0000000000000000000, 1.000000000000000000, 0.0000000000000000000 ) ) ;
#154 = PERSON_AND_ORGANIZATION ( #185, #165 ) ;
#155 = CALENDAR_DATE ( 2021, 28, 10 ) ;
#156 = CIRCLE ( 'NONE', #146, 1.499999999999999778 ) ;
#157 = APPROVAL_DATE_TIME ( #23, #162 ) ;
#158 = EDGE_LOOP ( 'NONE', ( #60 ) ) ;
#159 = APPROVAL_STATUS ( 'not_yet_approved' ) ;
#160 = CONICAL_SURFACE ( 'NONE', #39, 1.499999999999995559, 1.221730476396026388 ) ;
#161 = EDGE_LOOP ( 'NONE', ( #102 ) ) ;
#162 = APPROVAL ( #108, 'UNSPECIFIED' ) ;
#163 = CIRCLE ( 'NONE', #35, 0.3549999999999999822 ) ;
#164 = CONICAL_SURFACE ( 'NONE', #205, 1.499999999999998446, 0.2617993877991501295 ) ;
#165 = ORGANIZATION ( 'UNSPECIFIED', 'UNSPECIFIED', '' ) ;
#166 = DIRECTION ( 'NONE',  ( 0.0000000000000000000, 1.000000000000000000, 0.0000000000000000000 ) ) ;
#167 = FACE_OUTER_BOUND ( 'NONE', #161, .T. ) ;
#168 = CARTESIAN_POINT ( 'NONE',  ( 1.906192921252232855E-15, -6.686024735685322183E-17, 0.5459553513993090634 ) ) ;
#169 = CARTESIAN_POINT ( 'NONE',  ( 0.0000000000000000000, 0.0000000000000000000, 0.0000000000000000000 ) ) ;
#170 = DIRECTION ( 'NONE',  ( 0.0000000000000000000, 0.0000000000000000000, 1.000000000000000000 ) ) ;
#171 = PERSON_AND_ORGANIZATION ( #185, #165 ) ;
#172 = COORDINATED_UNIVERSAL_TIME_OFFSET ( 1, 0, .AHEAD. ) ;
#173 = APPROVAL_ROLE ( '' ) ;
#174 = CLOSED_SHELL ( 'NONE', ( #113, #219, #5, #199, #179 ) ) ;
#175 = VERTEX_POINT ( 'NONE', #126 ) ;
#176 = CC_DESIGN_APPROVAL ( #37, ( #7 ) ) ;
#177 = EDGE_LOOP ( 'NONE', ( #112 ) ) ;
#178 = DESIGN_CONTEXT ( 'detailed design', #58, 'design' ) ;
#179 = ADVANCED_FACE ( 'NONE', ( #139 ), #116, .F. ) ;
#180 = PERSON_AND_ORGANIZATION ( #185, #165 ) ;
#181 = ORIENTED_EDGE ( 'NONE', *, *, #135, .F. ) ;
#182 = CYLINDRICAL_SURFACE ( 'NONE', #34, 0.3549999999999999822 ) ;
#183 = SECURITY_CLASSIFICATION ( '', '', #212 ) ;
#184 = CARTESIAN_POINT ( 'NONE',  ( 4.511323246963627750E-16, -1.582359187445529253E-17, 0.1292094331645034233 ) ) ;
#185 = PERSON ( 'UNSPECIFIED', 'UNSPECIFIED', 'UNSPECIFIED', ('UNSPECIFIED'), ('UNSPECIFIED'), ('UNSPECIFIED') ) ;
#186 = CARTESIAN_POINT ( 'NONE',  ( 1.955229549752154679E-14, 1.124819836996389511E-32, 5.599999999999999645 ) ) ;
#187 = DIRECTION ( 'NONE',  ( -5.135813185032644414E-31, -1.000000000000000000, -1.445602896647343601E-16 ) ) ;
#188 = AXIS2_PLACEMENT_3D ( 'NONE', #87, #46, #153 ) ;
#189 = CC_DESIGN_APPROVAL ( #193, ( #183 ) ) ;
#190 = PERSON_AND_ORGANIZATION_ROLE ( 'design_owner' ) ;
#191 = CC_DESIGN_SECURITY_CLASSIFICATION ( #183, ( #128 ) ) ;
#192 = DATE_AND_TIME ( #141, #1 ) ;
#193 = APPROVAL ( #159, 'UNSPECIFIED' ) ;
#194 = AXIS2_PLACEMENT_3D ( 'NONE', #32, #149, #217 ) ;
#195 = DATE_TIME_ROLE ( 'classification_date' ) ;
#196 = EDGE_CURVE ( 'NONE', #125, #125, #133, .T. ) ;
#197 = CIRCLE ( 'NONE', #194, 1.499999999999998446 ) ;
#198 = EDGE_LOOP ( 'NONE', ( #42 ) ) ;
#199 = ADVANCED_FACE ( 'NONE', ( #132, #201 ), #164, .T. ) ;
#200 = EDGE_LOOP ( 'NONE', ( #25 ) ) ;
#201 = FACE_OUTER_BOUND ( 'NONE', #158, .T. ) ;
#202 = DIRECTION ( 'NONE',  ( 4.275831445896959482E-31, 1.000000000000000000, 1.224646799147353207E-16 ) ) ;
#203 = DIRECTION ( 'NONE',  ( -4.275831445896958607E-31, -1.000000000000000000, -1.224646799147353207E-16 ) ) ;
#204 = FACE_OUTER_BOUND ( 'NONE', #78, .T. ) ;
#205 = AXIS2_PLACEMENT_3D ( 'NONE', #44, #118, #28 ) ;
#206 = DIRECTION ( 'NONE',  ( 0.0000000000000000000, 1.000000000000000000, 0.0000000000000000000 ) ) ;
#207 = APPROVAL_ROLE ( '' ) ;
#208 = DATE_TIME_ROLE ( 'creation_date' ) ;
#209 = AXIS2_PLACEMENT_3D ( 'NONE', #148, #65, #29 ) ;
#210 = CC_DESIGN_PERSON_AND_ORGANIZATION_ASSIGNMENT ( #180, #93, ( #183 ) ) ;
#211 = CARTESIAN_POINT ( 'NONE',  ( 0.0000000000000000000, 0.0000000000000000000, 0.0000000000000000000 ) ) ;
#212 = SECURITY_CLASSIFICATION_LEVEL ( 'unclassified' ) ;
#213 = MANIFOLD_SOLID_BREP ( 'Corps-Déplacer/Copier1[2]', #79 ) ;
#214 = ORIENTED_EDGE ( 'NONE', *, *, #54, .F. ) ;
#215 = AXIS2_PLACEMENT_3D ( 'NONE', #186, #152, #203 ) ;
#216 = LOCAL_TIME ( 11, 22, 29.00000000000000000, #36 ) ;
#217 = DIRECTION ( 'NONE',  ( 0.0000000000000000000, 1.000000000000000000, 0.0000000000000000000 ) ) ;
#218 = FACE_OUTER_BOUND ( 'NONE', #96, .T. ) ;
#219 = ADVANCED_FACE ( 'NONE', ( #167, #90 ), #69, .T. ) ;
#220 = CARTESIAN_POINT ( 'NONE',  ( 1.955229549752154679E-14, -6.886832496971631884E-16, 5.599999999999999645 ) ) ;
#221 = CC_DESIGN_PERSON_AND_ORGANIZATION_ASSIGNMENT ( #89, #2, ( #7 ) ) ;
#222 = FACE_OUTER_BOUND ( 'NONE', #198, .T. ) ;
#223 = FACE_OUTER_BOUND ( 'NONE', #177, .T. ) ;
ENDSEC;
END-ISO-10303-21;
