ISO-10303-21;
HEADER;
FILE_DESCRIPTION (( 'STEP AP203' ),
    '1' );
FILE_NAME ('962857.step',
    '2021-10-28T09:22:28',
    ( '' ),
    ( '' ),
    'SwSTEP 2.0',
    'SolidWorks 2019',
    '' );
FILE_SCHEMA (( 'CONFIG_CONTROL_DESIGN' ));
ENDSEC;

DATA;
#1 = CYLINDRICAL_SURFACE ( 'NONE', #143, 0.3499999999999999778 ) ;
#2 = CYLINDRICAL_SURFACE ( 'NONE', #31, 1.499999999999997780 ) ;
#3 = CARTESIAN_POINT ( 'NONE',  ( 4.447783482921886195E-16, -1.560072438326578545E-17, 0.1273895819931724072 ) ) ;
#4 = APPROVAL ( #149, 'UNSPECIFIED' ) ;
#5 = CC_DESIGN_PERSON_AND_ORGANIZATION_ASSIGNMENT ( #154, #152, ( #68 ) ) ;
#6 = DIRECTION ( 'NONE',  ( 4.275831445896959482E-31, 1.000000000000000000, 1.224646799147353207E-16 ) ) ;
#7 = MECHANICAL_CONTEXT ( 'NONE', #127, 'mechanical' ) ;
#8 = ADVANCED_FACE ( 'NONE', ( #46, #155 ), #42, .T. ) ;
#9 = DIRECTION ( 'NONE',  ( 1.000000000000000000, 0.0000000000000000000, 0.0000000000000000000 ) ) ;
#10 = APPROVAL_ROLE ( '' ) ;
#11 = EDGE_LOOP ( 'NONE', ( #99 ) ) ;
#12 = AXIS2_PLACEMENT_3D ( 'NONE', #158, #67, #89 ) ;
#13 = EDGE_LOOP ( 'NONE', ( #134 ) ) ;
#14 = CARTESIAN_POINT ( 'NONE',  ( 1.326762908760390423E-13, -4.653657836759941941E-15, 38.00000000000000000 ) ) ;
#15 = DATE_TIME_ROLE ( 'creation_date' ) ;
#16 = EDGE_LOOP ( 'NONE', ( #61 ) ) ;
#17 = AXIS2_PLACEMENT_3D ( 'NONE', #22, #193, #35 ) ;
#18 = DIRECTION ( 'NONE',  ( 0.0000000000000000000, 1.000000000000000000, 0.0000000000000000000 ) ) ;
#19 = DIRECTION ( 'NONE',  ( 3.491481338843133355E-15, -1.224646799147353207E-16, 1.000000000000000000 ) ) ;
#20 = DIRECTION ( 'NONE',  ( 4.275831445896958607E-31, 1.000000000000000000, 1.224646799147353207E-16 ) ) ;
#21 = LOCAL_TIME ( 11, 22, 28.00000000000000000, #62 ) ;
#22 = CARTESIAN_POINT ( 'NONE',  ( 1.955229549752154679E-14, -6.886832496971631884E-16, 5.599999999999999645 ) ) ;
#23 = APPROVAL ( #47, 'UNSPECIFIED' ) ;
#24 = DIRECTION ( 'NONE',  ( -3.491481338843133355E-15, 1.224646799147353207E-16, -1.000000000000000000 ) ) ;
#25 = VERTEX_POINT ( 'NONE', #145 ) ;
#26 = APPROVAL_ROLE ( '' ) ;
#27 = DATE_AND_TIME ( #183, #173 ) ;
#28 = PERSON_AND_ORGANIZATION ( #222, #209 ) ;
#29 = CIRCLE ( 'NONE', #206, 1.199999999999999956 ) ;
#30 = ORIENTED_EDGE ( 'NONE', *, *, #181, .F. ) ;
#31 = AXIS2_PLACEMENT_3D ( 'NONE', #208, #24, #6 ) ;
#32 = PLANE ( 'NONE',  #43 ) ;
#33 = APPLICATION_CONTEXT ( 'configuration controlled 3d designs of mechanical parts and assemblies' ) ;
#34 = APPROVAL ( #144, 'UNSPECIFIED' ) ;
#35 = DIRECTION ( 'NONE',  ( 0.0000000000000000000, 1.000000000000000000, 0.0000000000000000000 ) ) ;
#36 = ADVANCED_BREP_SHAPE_REPRESENTATION ( '962857', ( #121, #49, #165 ), #64 ) ;
#37 = DIRECTION ( 'NONE',  ( -4.275831445896958607E-31, -1.000000000000000000, -1.224646799147353207E-16 ) ) ;
#38 = CARTESIAN_POINT ( 'NONE',  ( 1.955229549752154679E-14, 0.3499999999999993117, 5.599999999999999645 ) ) ;
#39 = CARTESIAN_POINT ( 'NONE',  ( 1.955229549752154679E-14, 1.124819836996389511E-32, 5.599999999999999645 ) ) ;
#40 = AXIS2_PLACEMENT_3D ( 'NONE', #177, #108, #191 ) ;
#41 = CC_DESIGN_PERSON_AND_ORGANIZATION_ASSIGNMENT ( #147, #53, ( #95 ) ) ;
#42 = CONICAL_SURFACE ( 'NONE', #212, 1.199999999999999956, 0.7853981633974453924 ) ;
#43 = AXIS2_PLACEMENT_3D ( 'NONE', #71, #104, #20 ) ;
#44 = APPROVAL_DATE_TIME ( #168, #23 ) ;
#45 = PERSON_AND_ORGANIZATION_ROLE ( 'classification_officer' ) ;
#46 = FACE_OUTER_BOUND ( 'NONE', #136, .T. ) ;
#47 = APPROVAL_STATUS ( 'not_yet_approved' ) ;
#48 = EDGE_CURVE ( 'NONE', #73, #73, #113, .T. ) ;
#49 = MANIFOLD_SOLID_BREP ( 'Corps-Déplacer/Copier1[2]', #223 ) ;
#50 = FACE_OUTER_BOUND ( 'NONE', #58, .T. ) ;
#51 = DIRECTION ( 'NONE',  ( -5.502656983963531384E-31, -1.000000000000000000, -1.548860246407863583E-16 ) ) ;
#52 = EDGE_CURVE ( 'NONE', #213, #213, #29, .T. ) ;
#53 = PERSON_AND_ORGANIZATION_ROLE ( 'design_owner' ) ;
#54 = APPLICATION_PROTOCOL_DEFINITION ( 'international standard', 'config_control_design', 1994, #33 ) ;
#55 = CC_DESIGN_PERSON_AND_ORGANIZATION_ASSIGNMENT ( #28, #65, ( #107 ) ) ;
#56 = CARTESIAN_POINT ( 'NONE',  ( 1.955229549752154679E-14, 0.3499999999999993117, 5.599999999999999645 ) ) ;
#57 = DATE_AND_TIME ( #78, #21 ) ;
#58 = EDGE_LOOP ( 'NONE', ( #172 ) ) ;
#59 = AXIS2_PLACEMENT_3D ( 'NONE', #175, #19, #88 ) ;
#60 = PERSON_AND_ORGANIZATION ( #222, #209 ) ;
#61 = ORIENTED_EDGE ( 'NONE', *, *, #198, .T. ) ;
#62 = COORDINATED_UNIVERSAL_TIME_OFFSET ( 1, 0, .AHEAD. ) ;
#63 = ORIENTED_EDGE ( 'NONE', *, *, #117, .T. ) ;
#64 =( GEOMETRIC_REPRESENTATION_CONTEXT ( 3 ) GLOBAL_UNCERTAINTY_ASSIGNED_CONTEXT ( ( #101 ) ) GLOBAL_UNIT_ASSIGNED_CONTEXT ( ( #161, #197, #163 ) ) REPRESENTATION_CONTEXT ( 'NONE', 'WORKASPACE' ) );
#65 = PERSON_AND_ORGANIZATION_ROLE ( 'creator' ) ;
#66 = CARTESIAN_POINT ( 'NONE',  ( 1.326762908760390423E-13, -4.653657836759941941E-15, 38.00000000000000000 ) ) ;
#67 = DIRECTION ( 'NONE',  ( -3.491481338843133355E-15, 1.224646799147353207E-16, -1.000000000000000000 ) ) ;
#68 = PRODUCT_DEFINITION_FORMATION_WITH_SPECIFIED_SOURCE ( 'ANY', '', #95, .NOT_KNOWN. ) ;
#69 = DIRECTION ( 'NONE',  ( -3.491481338843133355E-15, 1.229791517316362731E-16, -1.000000000000000000 ) ) ;
#70 = DIRECTION ( 'NONE',  ( 0.0000000000000000000, 1.000000000000000000, 0.0000000000000000000 ) ) ;
#71 = CARTESIAN_POINT ( 'NONE',  ( 1.326762908760390423E-13, 8.998558695971077224E-33, 38.00000000000000000 ) ) ;
#72 = CONICAL_SURFACE ( 'NONE', #40, 1.499999999999998446, 0.2617993877991500740 ) ;
#73 = VERTEX_POINT ( 'NONE', #93 ) ;
#74 = APPLICATION_PROTOCOL_DEFINITION ( 'international standard', 'config_control_design', 1994, #127 ) ;
#75 = CC_DESIGN_APPROVAL ( #4, ( #97 ) ) ;
#76 = DIRECTION ( 'NONE',  ( 3.491481338843133355E-15, -1.224646799147353207E-16, 1.000000000000000000 ) ) ;
#77 = APPROVAL_DATE_TIME ( #119, #4 ) ;
#78 = CALENDAR_DATE ( 2021, 28, 10 ) ;
#79 = EDGE_LOOP ( 'NONE', ( #81 ) ) ;
#80 = CIRCLE ( 'NONE', #12, 1.499999999999999778 ) ;
#81 = ORIENTED_EDGE ( 'NONE', *, *, #181, .T. ) ;
#82 = COORDINATED_UNIVERSAL_TIME_OFFSET ( 1, 0, .AHEAD. ) ;
#83 = ORIENTED_EDGE ( 'NONE', *, *, #48, .T. ) ;
#84 = CALENDAR_DATE ( 2021, 28, 10 ) ;
#85 = EDGE_LOOP ( 'NONE', ( #202 ) ) ;
#86 = DESIGN_CONTEXT ( 'detailed design', #33, 'design' ) ;
#87 = FACE_OUTER_BOUND ( 'NONE', #79, .T. ) ;
#88 = DIRECTION ( 'NONE',  ( -5.135813185032644414E-31, -1.000000000000000000, -1.445602896647343601E-16 ) ) ;
#89 = DIRECTION ( 'NONE',  ( 0.0000000000000000000, 1.000000000000000000, 0.0000000000000000000 ) ) ;
#90 = CONICAL_SURFACE ( 'NONE', #59, 1.499999999999995559, 1.221730476396026388 ) ;
#91 = DIRECTION ( 'NONE',  ( -3.491481338843133355E-15, 1.224646799147353207E-16, -1.000000000000000000 ) ) ;
#92 = DIRECTION ( 'NONE',  ( -4.275831445896958607E-31, -1.000000000000000000, -1.224646799147353207E-16 ) ) ;
#93 = CARTESIAN_POINT ( 'NONE',  ( 3.453723911029884306E-14, 1.499999999999997113, 9.891858428704191297 ) ) ;
#94 = CLOSED_SHELL ( 'NONE', ( #148, #8, #164, #110, #96 ) ) ;
#95 = PRODUCT ( '962857', '962857', '', ( #7 ) ) ;
#96 = ADVANCED_FACE ( 'NONE', ( #139 ), #195, .F. ) ;
#97 = SECURITY_CLASSIFICATION ( '', '', #205 ) ;
#98 = PRODUCT_DEFINITION_SHAPE ( 'NONE', 'NONE',  #107 ) ;
#99 = ORIENTED_EDGE ( 'NONE', *, *, #52, .T. ) ;
#100 = ORIENTED_EDGE ( 'NONE', *, *, #198, .F. ) ;
#101 = UNCERTAINTY_MEASURE_WITH_UNIT (LENGTH_MEASURE( 1.000000000000000082E-05 ), #161, 'distance_accuracy_value', 'NONE');
#102 = AXIS2_PLACEMENT_3D ( 'NONE', #122, #69, #70 ) ;
#103 = FACE_OUTER_BOUND ( 'NONE', #16, .T. ) ;
#104 = DIRECTION ( 'NONE',  ( -3.491481338843133355E-15, 1.224646799147353207E-16, -1.000000000000000000 ) ) ;
#105 = APPROVAL_PERSON_ORGANIZATION ( #219, #23, #10 ) ;
#106 = DIRECTION ( 'NONE',  ( -3.491481338843133355E-15, 1.229791517316362731E-16, -1.000000000000000000 ) ) ;
#107 = PRODUCT_DEFINITION ( 'UNKNOWN', '', #68, #86 ) ;
#108 = DIRECTION ( 'NONE',  ( 3.491481338843133355E-15, -1.229791517316362731E-16, 1.000000000000000000 ) ) ;
#109 = CARTESIAN_POINT ( 'NONE',  ( 1.326762908760390423E-13, 1.199999999999995293, 38.00000000000000000 ) ) ;
#110 = ADVANCED_FACE ( 'NONE', ( #124, #178 ), #72, .T. ) ;
#111 = COORDINATED_UNIVERSAL_TIME_OFFSET ( 1, 0, .AHEAD. ) ;
#112 = PERSON_AND_ORGANIZATION ( #222, #209 ) ;
#113 = CIRCLE ( 'NONE', #102, 1.499999999999998446 ) ;
#114 = ADVANCED_FACE ( 'NONE', ( #192, #211 ), #1, .T. ) ;
#115 = APPROVAL_DATE_TIME ( #27, #34 ) ;
#116 = CALENDAR_DATE ( 2021, 28, 10 ) ;
#117 = EDGE_CURVE ( 'NONE', #179, #179, #146, .T. ) ;
#118 = CC_DESIGN_APPROVAL ( #34, ( #107 ) ) ;
#119 = DATE_AND_TIME ( #187, #201 ) ;
#120 = CC_DESIGN_PERSON_AND_ORGANIZATION_ASSIGNMENT ( #60, #45, ( #97 ) ) ;
#121 = MANIFOLD_SOLID_BREP ( 'Corps-Déplacer/Copier1[1]', #94 ) ;
#122 = CARTESIAN_POINT ( 'NONE',  ( 3.453723911029884306E-14, -1.216492358611477940E-15, 9.891858428704191297 ) ) ;
#123 = LOCAL_TIME ( 11, 22, 28.00000000000000000, #82 ) ;
#124 = FACE_BOUND ( 'NONE', #13, .T. ) ;
#125 = CC_DESIGN_DATE_AND_TIME_ASSIGNMENT ( #57, #131, ( #97 ) ) ;
#126 = DIRECTION ( 'NONE',  ( 4.293794133377662246E-31, 1.000000000000000000, 1.229791517316362977E-16 ) ) ;
#127 = APPLICATION_CONTEXT ( 'configuration controlled 3d designs of mechanical parts and assemblies' ) ;
#128 = VERTEX_POINT ( 'NONE', #38 ) ;
#129 = PLANE ( 'NONE',  #160 ) ;
#130 = CIRCLE ( 'NONE', #169, 0.3499999999999999778 ) ;
#131 = DATE_TIME_ROLE ( 'classification_date' ) ;
#132 = EDGE_CURVE ( 'NONE', #128, #128, #130, .T. ) ;
#133 = PERSON_AND_ORGANIZATION ( #222, #209 ) ;
#134 = ORIENTED_EDGE ( 'NONE', *, *, #117, .F. ) ;
#135 = DATE_AND_TIME ( #116, #123 ) ;
#136 = EDGE_LOOP ( 'NONE', ( #30 ) ) ;
#137 = COORDINATED_UNIVERSAL_TIME_OFFSET ( 1, 0, .AHEAD. ) ;
#138 = DIRECTION ( 'NONE',  ( -3.491481338843133355E-15, 1.229791517316362731E-16, -1.000000000000000000 ) ) ;
#139 = FACE_OUTER_BOUND ( 'NONE', #215, .T. ) ;
#140 = APPROVAL_PERSON_ORGANIZATION ( #199, #34, #26 ) ;
#141 = DIRECTION ( 'NONE',  ( 3.491481338843133355E-15, -1.224646799147353207E-16, 1.000000000000000000 ) ) ;
#142 = CARTESIAN_POINT ( 'NONE',  ( 0.0000000000000000000, 0.0000000000000000000, 0.0000000000000000000 ) ) ;
#143 = AXIS2_PLACEMENT_3D ( 'NONE', #142, #106, #126 ) ;
#144 = APPROVAL_STATUS ( 'not_yet_approved' ) ;
#145 = CARTESIAN_POINT ( 'NONE',  ( 1.316288464743861212E-13, 1.499999999999995337, 37.69999999999999574 ) ) ;
#146 = CIRCLE ( 'NONE', #17, 0.3499999999999999778 ) ;
#147 = PERSON_AND_ORGANIZATION ( #222, #209 ) ;
#148 = ADVANCED_FACE ( 'NONE', ( #190, #87 ), #2, .T. ) ;
#149 = APPROVAL_STATUS ( 'not_yet_approved' ) ;
#150 = AXIS2_PLACEMENT_3D ( 'NONE', #3, #210, #51 ) ;
#151 = EDGE_LOOP ( 'NONE', ( #83 ) ) ;
#152 = PERSON_AND_ORGANIZATION_ROLE ( 'creator' ) ;
#153 = DIRECTION ( 'NONE',  ( -3.491481338843133355E-15, 1.224646799147353207E-16, -1.000000000000000000 ) ) ;
#154 = PERSON_AND_ORGANIZATION ( #222, #209 ) ;
#155 = FACE_BOUND ( 'NONE', #11, .T. ) ;
#156 = LOCAL_TIME ( 11, 22, 28.00000000000000000, #186 ) ;
#157 = DIRECTION ( 'NONE',  ( 0.0000000000000000000, 1.000000000000000000, 0.0000000000000000000 ) ) ;
#158 = CARTESIAN_POINT ( 'NONE',  ( 1.316288464743861212E-13, -4.616918432785521081E-15, 37.69999999999999574 ) ) ;
#159 = CARTESIAN_POINT ( 'NONE',  ( 1.955229549752154679E-14, -6.886832496971631884E-16, 5.599999999999999645 ) ) ;
#160 = AXIS2_PLACEMENT_3D ( 'NONE', #39, #76, #92 ) ;
#161 =( LENGTH_UNIT ( ) NAMED_UNIT ( * ) SI_UNIT ( .MILLI., .METRE. ) );
#162 = PRODUCT_RELATED_PRODUCT_CATEGORY ( 'detail', '', ( #95 ) ) ;
#163 =( NAMED_UNIT ( * ) SI_UNIT ( $, .STERADIAN. ) SOLID_ANGLE_UNIT ( ) );
#164 = ADVANCED_FACE ( 'NONE', ( #50 ), #32, .F. ) ;
#165 = AXIS2_PLACEMENT_3D ( 'NONE', #180, #182, #9 ) ;
#166 = PERSON_AND_ORGANIZATION_ROLE ( 'design_supplier' ) ;
#167 = ADVANCED_FACE ( 'NONE', ( #103 ), #90, .T. ) ;
#168 = DATE_AND_TIME ( #84, #156 ) ;
#169 = AXIS2_PLACEMENT_3D ( 'NONE', #159, #138, #18 ) ;
#170 = EDGE_LOOP ( 'NONE', ( #204 ) ) ;
#171 = EDGE_LOOP ( 'NONE', ( #100 ) ) ;
#172 = ORIENTED_EDGE ( 'NONE', *, *, #52, .F. ) ;
#173 = LOCAL_TIME ( 11, 22, 28.00000000000000000, #111 ) ;
#174 = EDGE_LOOP ( 'NONE', ( #217 ) ) ;
#175 = CARTESIAN_POINT ( 'NONE',  ( 1.906192921252232855E-15, -6.686024735685322183E-17, 0.5459553513993090634 ) ) ;
#176 = CARTESIAN_POINT ( 'NONE',  ( 1.955229549752154679E-14, 1.124819836996389511E-32, 5.599999999999999645 ) ) ;
#177 = CARTESIAN_POINT ( 'NONE',  ( 3.453723911029884306E-14, -1.216492358611477940E-15, 9.891858428704191297 ) ) ;
#178 = FACE_OUTER_BOUND ( 'NONE', #151, .T. ) ;
#179 = VERTEX_POINT ( 'NONE', #56 ) ;
#180 = CARTESIAN_POINT ( 'NONE',  ( 0.0000000000000000000, 0.0000000000000000000, 0.0000000000000000000 ) ) ;
#181 = EDGE_CURVE ( 'NONE', #25, #25, #80, .T. ) ;
#182 = DIRECTION ( 'NONE',  ( 0.0000000000000000000, 0.0000000000000000000, 1.000000000000000000 ) ) ;
#183 = CALENDAR_DATE ( 2021, 28, 10 ) ;
#184 = CARTESIAN_POINT ( 'NONE',  ( 4.447783482921884222E-16, -0.3499999999999999778, 0.1273895819931723516 ) ) ;
#185 = CC_DESIGN_APPROVAL ( #23, ( #68 ) ) ;
#186 = COORDINATED_UNIVERSAL_TIME_OFFSET ( 1, 0, .AHEAD. ) ;
#187 = CALENDAR_DATE ( 2021, 28, 10 ) ;
#188 = AXIS2_PLACEMENT_3D ( 'NONE', #176, #141, #37 ) ;
#189 = APPROVAL_PERSON_ORGANIZATION ( #133, #4, #214 ) ;
#190 = FACE_OUTER_BOUND ( 'NONE', #85, .T. ) ;
#191 = DIRECTION ( 'NONE',  ( 0.0000000000000000000, -1.000000000000000000, 0.0000000000000000000 ) ) ;
#192 = FACE_OUTER_BOUND ( 'NONE', #174, .T. ) ;
#193 = DIRECTION ( 'NONE',  ( -3.491481338843133355E-15, 1.229791517316362731E-16, -1.000000000000000000 ) ) ;
#194 = CIRCLE ( 'NONE', #150, 0.3499999999999999778 ) ;
#195 = PLANE ( 'NONE',  #188 ) ;
#196 = FACE_OUTER_BOUND ( 'NONE', #170, .T. ) ;
#197 =( NAMED_UNIT ( * ) PLANE_ANGLE_UNIT ( ) SI_UNIT ( $, .RADIAN. ) );
#198 = EDGE_CURVE ( 'NONE', #200, #200, #194, .T. ) ;
#199 = PERSON_AND_ORGANIZATION ( #222, #209 ) ;
#200 = VERTEX_POINT ( 'NONE', #184 ) ;
#201 = LOCAL_TIME ( 11, 22, 28.00000000000000000, #137 ) ;
#202 = ORIENTED_EDGE ( 'NONE', *, *, #48, .F. ) ;
#203 = CC_DESIGN_PERSON_AND_ORGANIZATION_ASSIGNMENT ( #112, #166, ( #68 ) ) ;
#204 = ORIENTED_EDGE ( 'NONE', *, *, #132, .F. ) ;
#205 = SECURITY_CLASSIFICATION_LEVEL ( 'unclassified' ) ;
#206 = AXIS2_PLACEMENT_3D ( 'NONE', #66, #91, #157 ) ;
#207 = SHAPE_DEFINITION_REPRESENTATION ( #98, #36 ) ;
#208 = CARTESIAN_POINT ( 'NONE',  ( 0.0000000000000000000, 0.0000000000000000000, 0.0000000000000000000 ) ) ;
#209 = ORGANIZATION ( 'UNSPECIFIED', 'UNSPECIFIED', '' ) ;
#210 = DIRECTION ( 'NONE',  ( -3.491481338843133355E-15, 1.224646799147353207E-16, -1.000000000000000000 ) ) ;
#211 = FACE_OUTER_BOUND ( 'NONE', #171, .T. ) ;
#212 = AXIS2_PLACEMENT_3D ( 'NONE', #14, #153, #221 ) ;
#213 = VERTEX_POINT ( 'NONE', #109 ) ;
#214 = APPROVAL_ROLE ( '' ) ;
#215 = EDGE_LOOP ( 'NONE', ( #63 ) ) ;
#216 = CC_DESIGN_SECURITY_CLASSIFICATION ( #97, ( #68 ) ) ;
#217 = ORIENTED_EDGE ( 'NONE', *, *, #132, .T. ) ;
#218 = ADVANCED_FACE ( 'NONE', ( #196 ), #129, .T. ) ;
#219 = PERSON_AND_ORGANIZATION ( #222, #209 ) ;
#220 = CC_DESIGN_DATE_AND_TIME_ASSIGNMENT ( #135, #15, ( #107 ) ) ;
#221 = DIRECTION ( 'NONE',  ( 0.0000000000000000000, 1.000000000000000000, 0.0000000000000000000 ) ) ;
#222 = PERSON ( 'UNSPECIFIED', 'UNSPECIFIED', 'UNSPECIFIED', ('UNSPECIFIED'), ('UNSPECIFIED'), ('UNSPECIFIED') ) ;
#223 = CLOSED_SHELL ( 'NONE', ( #218, #114, #167 ) ) ;
ENDSEC;
END-ISO-10303-21;
