ISO-10303-21;
HEADER;
FILE_DESCRIPTION (( 'STEP AP203' ),
    '1' );
FILE_NAME ('962856.step',
    '2021-10-28T09:22:27',
    ( '' ),
    ( '' ),
    'SwSTEP 2.0',
    'SolidWorks 2019',
    '' );
FILE_SCHEMA (( 'CONFIG_CONTROL_DESIGN' ));
ENDSEC;

DATA;
#1 = CALENDAR_DATE ( 2021, 28, 10 ) ;
#2 = APPLICATION_PROTOCOL_DEFINITION ( 'international standard', 'config_control_design', 1994, #134 ) ;
#3 = CARTESIAN_POINT ( 'NONE',  ( 0.0000000000000000000, 0.0000000000000000000, 0.0000000000000000000 ) ) ;
#4 = CC_DESIGN_APPROVAL ( #109, ( #18 ) ) ;
#5 = COORDINATED_UNIVERSAL_TIME_OFFSET ( 1, 0, .AHEAD. ) ;
#6 = PERSON_AND_ORGANIZATION ( #166, #35 ) ;
#7 = CONICAL_SURFACE ( 'NONE', #147, 1.499999999999998224, 0.2617993877991501295 ) ;
#8 = ADVANCED_FACE ( 'NONE', ( #150 ), #98, .F. ) ;
#9 = PRODUCT_DEFINITION_SHAPE ( 'NONE', 'NONE',  #175 ) ;
#10 = EDGE_LOOP ( 'NONE', ( #131 ) ) ;
#11 = AXIS2_PLACEMENT_3D ( 'NONE', #212, #191, #87 ) ;
#12 = EDGE_CURVE ( 'NONE', #108, #108, #157, .T. ) ;
#13 = DIRECTION ( 'NONE',  ( -4.444453717816697988E-31, -1.000000000000000000, -1.251002506714043540E-16 ) ) ;
#14 = DIRECTION ( 'NONE',  ( 3.491481338843133355E-15, -1.224646799147353207E-16, 1.000000000000000000 ) ) ;
#15 = CARTESIAN_POINT ( 'NONE',  ( 1.745740669421566678E-14, -6.148957586581812915E-16, 5.000000000000000000 ) ) ;
#16 = CIRCLE ( 'NONE', #71, 1.199999999999999956 ) ;
#17 = CARTESIAN_POINT ( 'NONE',  ( 3.276810995074898547E-14, -1.154178978635850780E-15, 9.385159698893412283 ) ) ;
#18 = SECURITY_CLASSIFICATION ( '', '', #196 ) ;
#19 = VERTEX_POINT ( 'NONE', #141 ) ;
#20 = PERSON_AND_ORGANIZATION_ROLE ( 'creator' ) ;
#21 = ORIENTED_EDGE ( 'NONE', *, *, #93, .T. ) ;
#22 = PRODUCT_RELATED_PRODUCT_CATEGORY ( 'detail', '', ( #76 ) ) ;
#23 = CC_DESIGN_DATE_AND_TIME_ASSIGNMENT ( #51, #122, ( #175 ) ) ;
#24 = AXIS2_PLACEMENT_3D ( 'NONE', #46, #14, #101 ) ;
#25 = EDGE_LOOP ( 'NONE', ( #149 ) ) ;
#26 = LOCAL_TIME ( 11, 22, 27.00000000000000000, #104 ) ;
#27 = DIRECTION ( 'NONE',  ( 4.275831445896959482E-31, 1.000000000000000000, 1.224646799147353207E-16 ) ) ;
#28 = DIRECTION ( 'NONE',  ( -3.491481338843133355E-15, 1.224646799147353207E-16, -1.000000000000000000 ) ) ;
#29 = DIRECTION ( 'NONE',  ( -3.491481338843133355E-15, 1.224646799147353207E-16, -1.000000000000000000 ) ) ;
#30 = CC_DESIGN_SECURITY_CLASSIFICATION ( #18, ( #216 ) ) ;
#31 = CARTESIAN_POINT ( 'NONE',  ( 1.326762908760390423E-13, -4.653657836759941941E-15, 38.00000000000000000 ) ) ;
#32 = APPROVAL_STATUS ( 'not_yet_approved' ) ;
#33 = ADVANCED_FACE ( 'NONE', ( #201 ), #189, .T. ) ;
#34 = AXIS2_PLACEMENT_3D ( 'NONE', #185, #29, #204 ) ;
#35 = ORGANIZATION ( 'UNSPECIFIED', 'UNSPECIFIED', '' ) ;
#36 = PERSON_AND_ORGANIZATION ( #166, #35 ) ;
#37 = ADVANCED_BREP_SHAPE_REPRESENTATION ( '962856', ( #116, #113, #50 ), #115 ) ;
#38 = DIRECTION ( 'NONE',  ( 0.0000000000000000000, 0.0000000000000000000, 1.000000000000000000 ) ) ;
#39 =( NAMED_UNIT ( * ) SI_UNIT ( $, .STERADIAN. ) SOLID_ANGLE_UNIT ( ) );
#40 = CIRCLE ( 'NONE', #56, 0.3250000000000000111 ) ;
#41 = EDGE_LOOP ( 'NONE', ( #146 ) ) ;
#42 = APPROVAL_ROLE ( '' ) ;
#43 = EDGE_LOOP ( 'NONE', ( #94 ) ) ;
#44 = DATE_AND_TIME ( #199, #106 ) ;
#45 = CYLINDRICAL_SURFACE ( 'NONE', #86, 1.499999999999997780 ) ;
#46 = CARTESIAN_POINT ( 'NONE',  ( 1.906192921252232855E-15, -6.686024735685322183E-17, 0.5459553513993090634 ) ) ;
#47 = DIRECTION ( 'NONE',  ( 3.491481338843133355E-15, -1.224646799147353207E-16, 1.000000000000000000 ) ) ;
#48 = CC_DESIGN_DATE_AND_TIME_ASSIGNMENT ( #177, #193, ( #18 ) ) ;
#49 = CARTESIAN_POINT ( 'NONE',  ( 1.745740669421566678E-14, -6.148957586581812915E-16, 5.000000000000000000 ) ) ;
#50 = AXIS2_PLACEMENT_3D ( 'NONE', #3, #38, #172 ) ;
#51 = DATE_AND_TIME ( #169, #198 ) ;
#52 = ADVANCED_FACE ( 'NONE', ( #132 ), #133, .T. ) ;
#53 = AXIS2_PLACEMENT_3D ( 'NONE', #203, #220, #179 ) ;
#54 = PERSON_AND_ORGANIZATION_ROLE ( 'design_owner' ) ;
#55 = ORIENTED_EDGE ( 'NONE', *, *, #93, .F. ) ;
#56 = AXIS2_PLACEMENT_3D ( 'NONE', #15, #81, #151 ) ;
#57 = APPROVAL ( #32, 'UNSPECIFIED' ) ;
#58 = ORIENTED_EDGE ( 'NONE', *, *, #83, .F. ) ;
#59 = PERSON_AND_ORGANIZATION_ROLE ( 'design_supplier' ) ;
#60 = CYLINDRICAL_SURFACE ( 'NONE', #11, 0.3250000000000000111 ) ;
#61 = DIRECTION ( 'NONE',  ( -3.491481338843133355E-15, 1.229791517316362731E-16, -1.000000000000000000 ) ) ;
#62 = APPLICATION_CONTEXT ( 'configuration controlled 3d designs of mechanical parts and assemblies' ) ;
#63 = DIRECTION ( 'NONE',  ( -3.491481338843133355E-15, 1.224646799147353207E-16, -1.000000000000000000 ) ) ;
#64 = EDGE_CURVE ( 'NONE', #173, #173, #211, .T. ) ;
#65 = CARTESIAN_POINT ( 'NONE',  ( 1.326762908760390423E-13, -4.653657836759941941E-15, 38.00000000000000000 ) ) ;
#66 = EDGE_LOOP ( 'NONE', ( #55 ) ) ;
#67 = CARTESIAN_POINT ( 'NONE',  ( 3.276810995074898547E-14, 1.499999999999997113, 9.385159698893412283 ) ) ;
#68 = VERTEX_POINT ( 'NONE', #88 ) ;
#69 = PERSON_AND_ORGANIZATION_ROLE ( 'creator' ) ;
#70 = APPROVAL_ROLE ( '' ) ;
#71 = AXIS2_PLACEMENT_3D ( 'NONE', #31, #222, #119 ) ;
#72 = CALENDAR_DATE ( 2021, 28, 10 ) ;
#73 = CIRCLE ( 'NONE', #92, 0.3250000000000000111 ) ;
#74 = APPROVAL_DATE_TIME ( #44, #109 ) ;
#75 = ORIENTED_EDGE ( 'NONE', *, *, #12, .F. ) ;
#76 = PRODUCT ( '962856', '962856', '', ( #139 ) ) ;
#77 = EDGE_LOOP ( 'NONE', ( #178 ) ) ;
#78 = FACE_OUTER_BOUND ( 'NONE', #161, .T. ) ;
#79 = EDGE_CURVE ( 'NONE', #19, #19, #16, .T. ) ;
#80 = DIRECTION ( 'NONE',  ( 0.0000000000000000000, 1.000000000000000000, 0.0000000000000000000 ) ) ;
#81 = DIRECTION ( 'NONE',  ( -3.491481338843133355E-15, 1.229791517316362731E-16, -1.000000000000000000 ) ) ;
#82 = DIRECTION ( 'NONE',  ( -3.491481338843133355E-15, 1.229791517316362731E-16, -1.000000000000000000 ) ) ;
#83 = EDGE_CURVE ( 'NONE', #85, #85, #184, .T. ) ;
#84 = PERSON_AND_ORGANIZATION ( #166, #35 ) ;
#85 = VERTEX_POINT ( 'NONE', #207 ) ;
#86 = AXIS2_PLACEMENT_3D ( 'NONE', #217, #28, #27 ) ;
#87 = DIRECTION ( 'NONE',  ( 4.293794133377662246E-31, 1.000000000000000000, 1.229791517316362731E-16 ) ) ;
#88 = CARTESIAN_POINT ( 'NONE',  ( 1.745740669421566678E-14, 0.3249999999999994005, 5.000000000000000000 ) ) ;
#89 = CC_DESIGN_PERSON_AND_ORGANIZATION_ASSIGNMENT ( #6, #129, ( #18 ) ) ;
#90 = APPROVAL_DATE_TIME ( #210, #142 ) ;
#91 = AXIS2_PLACEMENT_3D ( 'NONE', #120, #61, #80 ) ;
#92 = AXIS2_PLACEMENT_3D ( 'NONE', #162, #180, #13 ) ;
#93 = EDGE_CURVE ( 'NONE', #223, #223, #73, .T. ) ;
#94 = ORIENTED_EDGE ( 'NONE', *, *, #181, .F. ) ;
#95 = PERSON_AND_ORGANIZATION ( #166, #35 ) ;
#96 = COORDINATED_UNIVERSAL_TIME_OFFSET ( 1, 0, .AHEAD. ) ;
#97 = ORIENTED_EDGE ( 'NONE', *, *, #64, .T. ) ;
#98 = PLANE ( 'NONE',  #34 ) ;
#99 = PLANE ( 'NONE',  #102 ) ;
#100 = DIRECTION ( 'NONE',  ( -3.491481338843133355E-15, 1.224646799147353207E-16, -1.000000000000000000 ) ) ;
#101 = DIRECTION ( 'NONE',  ( -5.135813185032644414E-31, -1.000000000000000000, -1.445602896647343601E-16 ) ) ;
#102 = AXIS2_PLACEMENT_3D ( 'NONE', #221, #47, #200 ) ;
#103 = FACE_BOUND ( 'NONE', #10, .T. ) ;
#104 = COORDINATED_UNIVERSAL_TIME_OFFSET ( 1, 0, .AHEAD. ) ;
#105 = APPROVAL_ROLE ( '' ) ;
#106 = LOCAL_TIME ( 11, 22, 27.00000000000000000, #5 ) ;
#107 = PERSON_AND_ORGANIZATION ( #166, #35 ) ;
#108 = VERTEX_POINT ( 'NONE', #67 ) ;
#109 = APPROVAL ( #110, 'UNSPECIFIED' ) ;
#110 = APPROVAL_STATUS ( 'not_yet_approved' ) ;
#111 = UNCERTAINTY_MEASURE_WITH_UNIT (LENGTH_MEASURE( 1.000000000000000082E-05 ), #188, 'distance_accuracy_value', 'NONE');
#112 = ORIENTED_EDGE ( 'NONE', *, *, #181, .T. ) ;
#113 = MANIFOLD_SOLID_BREP ( 'Corps-Déplacer/Copier1[2]', #156 ) ;
#114 = AXIS2_PLACEMENT_3D ( 'NONE', #49, #82, #152 ) ;
#115 =( GEOMETRIC_REPRESENTATION_CONTEXT ( 3 ) GLOBAL_UNCERTAINTY_ASSIGNED_CONTEXT ( ( #111 ) ) GLOBAL_UNIT_ASSIGNED_CONTEXT ( ( #188, #155, #39 ) ) REPRESENTATION_CONTEXT ( 'NONE', 'WORKASPACE' ) );
#116 = MANIFOLD_SOLID_BREP ( 'Corps-Déplacer/Copier1[1]', #135 ) ;
#117 = FACE_OUTER_BOUND ( 'NONE', #126, .T. ) ;
#118 = ADVANCED_FACE ( 'NONE', ( #136 ), #99, .F. ) ;
#119 = DIRECTION ( 'NONE',  ( 0.0000000000000000000, 1.000000000000000000, 0.0000000000000000000 ) ) ;
#120 = CARTESIAN_POINT ( 'NONE',  ( 3.276810995074898547E-14, -1.154178978635850780E-15, 9.385159698893412283 ) ) ;
#121 = FACE_OUTER_BOUND ( 'NONE', #215, .T. ) ;
#122 = DATE_TIME_ROLE ( 'creation_date' ) ;
#123 = DATE_AND_TIME ( #1, #26 ) ;
#124 = CC_DESIGN_PERSON_AND_ORGANIZATION_ASSIGNMENT ( #84, #69, ( #175 ) ) ;
#125 = COORDINATED_UNIVERSAL_TIME_OFFSET ( 1, 0, .AHEAD. ) ;
#126 = EDGE_LOOP ( 'NONE', ( #197 ) ) ;
#127 = ADVANCED_FACE ( 'NONE', ( #219, #117 ), #45, .T. ) ;
#128 = PERSON_AND_ORGANIZATION ( #166, #35 ) ;
#129 = PERSON_AND_ORGANIZATION_ROLE ( 'classification_officer' ) ;
#130 = LOCAL_TIME ( 11, 22, 27.00000000000000000, #125 ) ;
#131 = ORIENTED_EDGE ( 'NONE', *, *, #79, .T. ) ;
#132 = FACE_OUTER_BOUND ( 'NONE', #43, .T. ) ;
#133 = PLANE ( 'NONE',  #53 ) ;
#134 = APPLICATION_CONTEXT ( 'configuration controlled 3d designs of mechanical parts and assemblies' ) ;
#135 = CLOSED_SHELL ( 'NONE', ( #127, #145, #8, #202, #118 ) ) ;
#136 = FACE_OUTER_BOUND ( 'NONE', #163, .T. ) ;
#137 = FACE_BOUND ( 'NONE', #25, .T. ) ;
#138 = DIRECTION ( 'NONE',  ( 3.491481338843133355E-15, -1.229791517316362731E-16, 1.000000000000000000 ) ) ;
#139 = MECHANICAL_CONTEXT ( 'NONE', #62, 'mechanical' ) ;
#140 = CC_DESIGN_APPROVAL ( #142, ( #175 ) ) ;
#141 = CARTESIAN_POINT ( 'NONE',  ( 1.326762908760390423E-13, 1.199999999999995293, 38.00000000000000000 ) ) ;
#142 = APPROVAL ( #153, 'UNSPECIFIED' ) ;
#143 = AXIS2_PLACEMENT_3D ( 'NONE', #148, #63, #167 ) ;
#144 = CARTESIAN_POINT ( 'NONE',  ( 1.745740669421566678E-14, 0.3249999999999994005, 5.000000000000000000 ) ) ;
#145 = ADVANCED_FACE ( 'NONE', ( #78, #103 ), #214, .T. ) ;
#146 = ORIENTED_EDGE ( 'NONE', *, *, #79, .F. ) ;
#147 = AXIS2_PLACEMENT_3D ( 'NONE', #17, #138, #205 ) ;
#148 = CARTESIAN_POINT ( 'NONE',  ( 1.316288464743861212E-13, -4.616918432785521081E-15, 37.69999999999999574 ) ) ;
#149 = ORIENTED_EDGE ( 'NONE', *, *, #64, .F. ) ;
#150 = FACE_OUTER_BOUND ( 'NONE', #41, .T. ) ;
#151 = DIRECTION ( 'NONE',  ( 0.0000000000000000000, 1.000000000000000000, 0.0000000000000000000 ) ) ;
#152 = DIRECTION ( 'NONE',  ( 0.0000000000000000000, 1.000000000000000000, 0.0000000000000000000 ) ) ;
#153 = APPROVAL_STATUS ( 'not_yet_approved' ) ;
#154 = AXIS2_PLACEMENT_3D ( 'NONE', #65, #100, #165 ) ;
#155 =( NAMED_UNIT ( * ) PLANE_ANGLE_UNIT ( ) SI_UNIT ( $, .RADIAN. ) );
#156 = CLOSED_SHELL ( 'NONE', ( #52, #213, #33 ) ) ;
#157 = CIRCLE ( 'NONE', #91, 1.499999999999998224 ) ;
#158 = PERSON_AND_ORGANIZATION ( #166, #35 ) ;
#159 = DESIGN_CONTEXT ( 'detailed design', #134, 'design' ) ;
#160 = SHAPE_DEFINITION_REPRESENTATION ( #9, #37 ) ;
#161 = EDGE_LOOP ( 'NONE', ( #58 ) ) ;
#162 = CARTESIAN_POINT ( 'NONE',  ( 4.130084662713179897E-16, -1.448638692731822230E-17, 0.1182903261365172154 ) ) ;
#163 = EDGE_LOOP ( 'NONE', ( #97 ) ) ;
#164 = CC_DESIGN_PERSON_AND_ORGANIZATION_ASSIGNMENT ( #128, #59, ( #216 ) ) ;
#165 = DIRECTION ( 'NONE',  ( 0.0000000000000000000, 1.000000000000000000, 0.0000000000000000000 ) ) ;
#166 = PERSON ( 'UNSPECIFIED', 'UNSPECIFIED', 'UNSPECIFIED', ('UNSPECIFIED'), ('UNSPECIFIED'), ('UNSPECIFIED') ) ;
#167 = DIRECTION ( 'NONE',  ( 0.0000000000000000000, 1.000000000000000000, 0.0000000000000000000 ) ) ;
#168 = FACE_OUTER_BOUND ( 'NONE', #66, .T. ) ;
#169 = CALENDAR_DATE ( 2021, 28, 10 ) ;
#170 = APPROVAL_DATE_TIME ( #123, #57 ) ;
#171 = CARTESIAN_POINT ( 'NONE',  ( 4.130084662713178418E-16, -0.3250000000000000111, 0.1182903261365171738 ) ) ;
#172 = DIRECTION ( 'NONE',  ( 1.000000000000000000, 0.0000000000000000000, 0.0000000000000000000 ) ) ;
#173 = VERTEX_POINT ( 'NONE', #144 ) ;
#174 = APPROVAL_PERSON_ORGANIZATION ( #187, #57, #105 ) ;
#175 = PRODUCT_DEFINITION ( 'UNKNOWN', '', #216, #159 ) ;
#176 = LOCAL_TIME ( 11, 22, 27.00000000000000000, #96 ) ;
#177 = DATE_AND_TIME ( #72, #176 ) ;
#178 = ORIENTED_EDGE ( 'NONE', *, *, #12, .T. ) ;
#179 = DIRECTION ( 'NONE',  ( -4.275831445896958607E-31, -1.000000000000000000, -1.224646799147353207E-16 ) ) ;
#180 = DIRECTION ( 'NONE',  ( -3.491481338843133355E-15, 1.224646799147353207E-16, -1.000000000000000000 ) ) ;
#181 = EDGE_CURVE ( 'NONE', #68, #68, #40, .T. ) ;
#182 = EDGE_LOOP ( 'NONE', ( #75 ) ) ;
#183 = FACE_OUTER_BOUND ( 'NONE', #77, .T. ) ;
#184 = CIRCLE ( 'NONE', #143, 1.499999999999999778 ) ;
#185 = CARTESIAN_POINT ( 'NONE',  ( 1.326762908760390423E-13, 8.998558695971077224E-33, 38.00000000000000000 ) ) ;
#186 = APPROVAL_PERSON_ORGANIZATION ( #107, #142, #70 ) ;
#187 = PERSON_AND_ORGANIZATION ( #166, #35 ) ;
#188 =( LENGTH_UNIT ( ) NAMED_UNIT ( * ) SI_UNIT ( .MILLI., .METRE. ) );
#189 = CONICAL_SURFACE ( 'NONE', #24, 1.499999999999995559, 1.221730476396026388 ) ;
#190 = CC_DESIGN_APPROVAL ( #57, ( #216 ) ) ;
#191 = DIRECTION ( 'NONE',  ( -3.491481338843133355E-15, 1.229791517316362731E-16, -1.000000000000000000 ) ) ;
#192 = CALENDAR_DATE ( 2021, 28, 10 ) ;
#193 = DATE_TIME_ROLE ( 'classification_date' ) ;
#194 = EDGE_LOOP ( 'NONE', ( #21 ) ) ;
#195 = APPROVAL_PERSON_ORGANIZATION ( #158, #109, #42 ) ;
#196 = SECURITY_CLASSIFICATION_LEVEL ( 'unclassified' ) ;
#197 = ORIENTED_EDGE ( 'NONE', *, *, #83, .T. ) ;
#198 = LOCAL_TIME ( 11, 22, 27.00000000000000000, #206 ) ;
#199 = CALENDAR_DATE ( 2021, 28, 10 ) ;
#200 = DIRECTION ( 'NONE',  ( -4.275831445896958607E-31, -1.000000000000000000, -1.224646799147353207E-16 ) ) ;
#201 = FACE_OUTER_BOUND ( 'NONE', #194, .T. ) ;
#202 = ADVANCED_FACE ( 'NONE', ( #137, #183 ), #7, .T. ) ;
#203 = CARTESIAN_POINT ( 'NONE',  ( 1.745740669421566678E-14, 1.124819836996389511E-32, 5.000000000000000000 ) ) ;
#204 = DIRECTION ( 'NONE',  ( 4.275831445896958607E-31, 1.000000000000000000, 1.224646799147353207E-16 ) ) ;
#205 = DIRECTION ( 'NONE',  ( 0.0000000000000000000, -1.000000000000000000, 0.0000000000000000000 ) ) ;
#206 = COORDINATED_UNIVERSAL_TIME_OFFSET ( 1, 0, .AHEAD. ) ;
#207 = CARTESIAN_POINT ( 'NONE',  ( 1.316288464743861212E-13, 1.499999999999995337, 37.69999999999999574 ) ) ;
#208 = APPLICATION_PROTOCOL_DEFINITION ( 'international standard', 'config_control_design', 1994, #62 ) ;
#209 = CC_DESIGN_PERSON_AND_ORGANIZATION_ASSIGNMENT ( #95, #20, ( #216 ) ) ;
#210 = DATE_AND_TIME ( #192, #130 ) ;
#211 = CIRCLE ( 'NONE', #114, 0.3250000000000000111 ) ;
#212 = CARTESIAN_POINT ( 'NONE',  ( 0.0000000000000000000, 0.0000000000000000000, 0.0000000000000000000 ) ) ;
#213 = ADVANCED_FACE ( 'NONE', ( #121, #168 ), #60, .T. ) ;
#214 = CONICAL_SURFACE ( 'NONE', #154, 1.199999999999999956, 0.7853981633974453924 ) ;
#215 = EDGE_LOOP ( 'NONE', ( #112 ) ) ;
#216 = PRODUCT_DEFINITION_FORMATION_WITH_SPECIFIED_SOURCE ( 'ANY', '', #76, .NOT_KNOWN. ) ;
#217 = CARTESIAN_POINT ( 'NONE',  ( 0.0000000000000000000, 0.0000000000000000000, 0.0000000000000000000 ) ) ;
#218 = CC_DESIGN_PERSON_AND_ORGANIZATION_ASSIGNMENT ( #36, #54, ( #76 ) ) ;
#219 = FACE_OUTER_BOUND ( 'NONE', #182, .T. ) ;
#220 = DIRECTION ( 'NONE',  ( 3.491481338843133355E-15, -1.224646799147353207E-16, 1.000000000000000000 ) ) ;
#221 = CARTESIAN_POINT ( 'NONE',  ( 1.745740669421566678E-14, 1.124819836996389511E-32, 5.000000000000000000 ) ) ;
#222 = DIRECTION ( 'NONE',  ( -3.491481338843133355E-15, 1.224646799147353207E-16, -1.000000000000000000 ) ) ;
#223 = VERTEX_POINT ( 'NONE', #171 ) ;
ENDSEC;
END-ISO-10303-21;
