ISO-10303-21;
HEADER;
FILE_DESCRIPTION (( 'STEP AP203' ),
    '1' );
FILE_NAME ('962855.step',
    '2021-10-28T09:22:27',
    ( '' ),
    ( '' ),
    'SwSTEP 2.0',
    'SolidWorks 2019',
    '' );
FILE_SCHEMA (( 'CONFIG_CONTROL_DESIGN' ));
ENDSEC;

DATA;
#1 = DATE_AND_TIME ( #58, #81 ) ;
#2 = DIRECTION ( 'NONE',  ( -3.491481338843133355E-15, 1.224646799147353207E-16, -1.000000000000000000 ) ) ;
#3 = APPROVAL_DATE_TIME ( #1, #90 ) ;
#4 = DIRECTION ( 'NONE',  ( 4.293794133377661370E-31, 1.000000000000000000, 1.229791517316362731E-16 ) ) ;
#5 = SECURITY_CLASSIFICATION ( '', '', #22 ) ;
#6 = CARTESIAN_POINT ( 'NONE',  ( 1.906192921252232855E-15, -6.686024735685322183E-17, 0.5459553513993090634 ) ) ;
#7 = PERSON_AND_ORGANIZATION_ROLE ( 'design_supplier' ) ;
#8 = SHAPE_DEFINITION_REPRESENTATION ( #138, #72 ) ;
#9 = EDGE_CURVE ( 'NONE', #219, #219, #99, .T. ) ;
#10 = DIRECTION ( 'NONE',  ( 0.0000000000000000000, 1.000000000000000000, 0.0000000000000000000 ) ) ;
#11 = CC_DESIGN_PERSON_AND_ORGANIZATION_ASSIGNMENT ( #126, #67, ( #5 ) ) ;
#12 = DATE_AND_TIME ( #215, #128 ) ;
#13 = ORIENTED_EDGE ( 'NONE', *, *, #205, .T. ) ;
#14 = DIRECTION ( 'NONE',  ( -3.491481338843133355E-15, 1.224646799147353207E-16, -1.000000000000000000 ) ) ;
#15 = ORIENTED_EDGE ( 'NONE', *, *, #54, .F. ) ;
#16 = CIRCLE ( 'NONE', #42, 1.499999999999998224 ) ;
#17 = CC_DESIGN_APPROVAL ( #177, ( #119 ) ) ;
#18 = CARTESIAN_POINT ( 'NONE',  ( 1.745740669421566678E-14, -6.148957586581812915E-16, 5.000000000000000000 ) ) ;
#19 = DIRECTION ( 'NONE',  ( 3.491481338843133355E-15, -1.224646799147353207E-16, 1.000000000000000000 ) ) ;
#20 = FACE_OUTER_BOUND ( 'NONE', #149, .T. ) ;
#21 = FACE_OUTER_BOUND ( 'NONE', #171, .T. ) ;
#22 = SECURITY_CLASSIFICATION_LEVEL ( 'unclassified' ) ;
#23 = PLANE ( 'NONE',  #136 ) ;
#24 = ADVANCED_FACE ( 'NONE', ( #49, #186 ), #31, .T. ) ;
#25 = AXIS2_PLACEMENT_3D ( 'NONE', #34, #19, #40 ) ;
#26 = CC_DESIGN_APPROVAL ( #90, ( #191 ) ) ;
#27 = PERSON_AND_ORGANIZATION_ROLE ( 'creator' ) ;
#28 = CC_DESIGN_DATE_AND_TIME_ASSIGNMENT ( #190, #125, ( #5 ) ) ;
#29 = APPLICATION_CONTEXT ( 'configuration controlled 3d designs of mechanical parts and assemblies' ) ;
#30 = ORIENTED_EDGE ( 'NONE', *, *, #97, .F. ) ;
#31 = CYLINDRICAL_SURFACE ( 'NONE', #212, 0.3099999999999999978 ) ;
#32 = AXIS2_PLACEMENT_3D ( 'NONE', #92, #156, #73 ) ;
#33 = PERSON_AND_ORGANIZATION ( #106, #114 ) ;
#34 = CARTESIAN_POINT ( 'NONE',  ( 1.745740669421566678E-14, 1.124819836996389511E-32, 5.000000000000000000 ) ) ;
#35 = DIRECTION ( 'NONE',  ( 0.0000000000000000000, 1.000000000000000000, 0.0000000000000000000 ) ) ;
#36 = ADVANCED_FACE ( 'NONE', ( #201 ), #127, .T. ) ;
#37 = COORDINATED_UNIVERSAL_TIME_OFFSET ( 1, 0, .AHEAD. ) ;
#38 = CONICAL_SURFACE ( 'NONE', #122, 1.199999999999999956, 0.7853981633974453924 ) ;
#39 = CARTESIAN_POINT ( 'NONE',  ( 0.0000000000000000000, 0.0000000000000000000, 0.0000000000000000000 ) ) ;
#40 = DIRECTION ( 'NONE',  ( -4.275831445896958607E-31, -1.000000000000000000, -1.224646799147353207E-16 ) ) ;
#41 = MANIFOLD_SOLID_BREP ( 'Corps-Déplacer/Copier1[1]', #199 ) ;
#42 = AXIS2_PLACEMENT_3D ( 'NONE', #71, #75, #144 ) ;
#43 = CC_DESIGN_PERSON_AND_ORGANIZATION_ASSIGNMENT ( #70, #7, ( #191 ) ) ;
#44 = APPROVAL_STATUS ( 'not_yet_approved' ) ;
#45 = PERSON_AND_ORGANIZATION ( #106, #114 ) ;
#46 = PRODUCT_RELATED_PRODUCT_CATEGORY ( 'detail', '', ( #187 ) ) ;
#47 = VERTEX_POINT ( 'NONE', #117 ) ;
#48 = ADVANCED_FACE ( 'NONE', ( #21 ), #181, .T. ) ;
#49 = FACE_OUTER_BOUND ( 'NONE', #134, .T. ) ;
#50 = CONICAL_SURFACE ( 'NONE', #32, 1.499999999999998224, 0.2617993877991500740 ) ;
#51 = COORDINATED_UNIVERSAL_TIME_OFFSET ( 1, 0, .AHEAD. ) ;
#52 = ORIENTED_EDGE ( 'NONE', *, *, #97, .T. ) ;
#53 = APPROVAL_ROLE ( '' ) ;
#54 = EDGE_CURVE ( 'NONE', #82, #82, #59, .T. ) ;
#55 = CARTESIAN_POINT ( 'NONE',  ( 1.745740669421566678E-14, 1.124819836996389511E-32, 5.000000000000000000 ) ) ;
#56 = APPROVAL_PERSON_ORGANIZATION ( #197, #90, #53 ) ;
#57 = CARTESIAN_POINT ( 'NONE',  ( 1.316288464743861212E-13, -4.616918432785521081E-15, 37.69999999999999574 ) ) ;
#58 = CALENDAR_DATE ( 2021, 28, 10 ) ;
#59 = CIRCLE ( 'NONE', #112, 0.3099999999999999978 ) ;
#60 = AXIS2_PLACEMENT_3D ( 'NONE', #142, #208, #143 ) ;
#61 = EDGE_LOOP ( 'NONE', ( #147 ) ) ;
#62 =( NAMED_UNIT ( * ) SI_UNIT ( $, .STERADIAN. ) SOLID_ANGLE_UNIT ( ) );
#63 = ORIENTED_EDGE ( 'NONE', *, *, #54, .T. ) ;
#64 = PERSON_AND_ORGANIZATION ( #106, #114 ) ;
#65 = ORIENTED_EDGE ( 'NONE', *, *, #205, .F. ) ;
#66 = EDGE_LOOP ( 'NONE', ( #15 ) ) ;
#67 = PERSON_AND_ORGANIZATION_ROLE ( 'classification_officer' ) ;
#68 = FACE_OUTER_BOUND ( 'NONE', #118, .T. ) ;
#69 = CC_DESIGN_PERSON_AND_ORGANIZATION_ASSIGNMENT ( #45, #27, ( #119 ) ) ;
#70 = PERSON_AND_ORGANIZATION ( #106, #114 ) ;
#71 = CARTESIAN_POINT ( 'NONE',  ( 3.296356573700261028E-14, -1.161063445273863661E-15, 9.441140461006947149 ) ) ;
#72 = ADVANCED_BREP_SHAPE_REPRESENTATION ( '962855', ( #41, #194, #214 ), #160 ) ;
#73 = DIRECTION ( 'NONE',  ( 0.0000000000000000000, -1.000000000000000000, 0.0000000000000000000 ) ) ;
#74 = APPROVAL_STATUS ( 'not_yet_approved' ) ;
#75 = DIRECTION ( 'NONE',  ( -3.491481338843133355E-15, 1.229791517316362731E-16, -1.000000000000000000 ) ) ;
#76 = FACE_OUTER_BOUND ( 'NONE', #218, .T. ) ;
#77 = AXIS2_PLACEMENT_3D ( 'NONE', #18, #124, #198 ) ;
#78 = LOCAL_TIME ( 11, 22, 27.00000000000000000, #95 ) ;
#79 = CC_DESIGN_PERSON_AND_ORGANIZATION_ASSIGNMENT ( #120, #174, ( #191 ) ) ;
#80 = UNCERTAINTY_MEASURE_WITH_UNIT (LENGTH_MEASURE( 1.000000000000000082E-05 ), #168, 'distance_accuracy_value', 'NONE');
#81 = LOCAL_TIME ( 11, 22, 27.00000000000000000, #141 ) ;
#82 = VERTEX_POINT ( 'NONE', #165 ) ;
#83 = ORIENTED_EDGE ( 'NONE', *, *, #210, .T. ) ;
#84 = CARTESIAN_POINT ( 'NONE',  ( 1.326762908760390423E-13, 1.199999999999995293, 38.00000000000000000 ) ) ;
#85 = DIRECTION ( 'NONE',  ( -3.491481338843133355E-15, 1.224646799147353207E-16, -1.000000000000000000 ) ) ;
#86 = APPLICATION_PROTOCOL_DEFINITION ( 'international standard', 'config_control_design', 1994, #29 ) ;
#87 = EDGE_CURVE ( 'NONE', #150, #150, #16, .T. ) ;
#88 = AXIS2_PLACEMENT_3D ( 'NONE', #6, #192, #91 ) ;
#89 = DIRECTION ( 'NONE',  ( -3.491481338843133355E-15, 1.229791517316362731E-16, -1.000000000000000000 ) ) ;
#90 = APPROVAL ( #94, 'UNSPECIFIED' ) ;
#91 = DIRECTION ( 'NONE',  ( -5.135813185032644414E-31, -1.000000000000000000, -1.445602896647343601E-16 ) ) ;
#92 = CARTESIAN_POINT ( 'NONE',  ( 3.296356573700261028E-14, -1.161063445273863661E-15, 9.441140461006947149 ) ) ;
#93 = AXIS2_PLACEMENT_3D ( 'NONE', #57, #193, #35 ) ;
#94 = APPROVAL_STATUS ( 'not_yet_approved' ) ;
#95 = COORDINATED_UNIVERSAL_TIME_OFFSET ( 1, 0, .AHEAD. ) ;
#96 = FACE_BOUND ( 'NONE', #131, .T. ) ;
#97 = EDGE_CURVE ( 'NONE', #116, #116, #105, .T. ) ;
#98 = CARTESIAN_POINT ( 'NONE',  ( 3.939465370587955231E-16, -1.381778445374968565E-17, 0.1128307726225240837 ) ) ;
#99 = CIRCLE ( 'NONE', #221, 1.199999999999999956 ) ;
#100 = APPLICATION_PROTOCOL_DEFINITION ( 'international standard', 'config_control_design', 1994, #216 ) ;
#101 = CIRCLE ( 'NONE', #93, 1.499999999999999778 ) ;
#102 = CARTESIAN_POINT ( 'NONE',  ( 0.0000000000000000000, 0.0000000000000000000, 0.0000000000000000000 ) ) ;
#103 = ADVANCED_FACE ( 'NONE', ( #108, #76 ), #111, .T. ) ;
#104 = CC_DESIGN_DATE_AND_TIME_ASSIGNMENT ( #12, #207, ( #119 ) ) ;
#105 = CIRCLE ( 'NONE', #77, 0.3099999999999999978 ) ;
#106 = PERSON ( 'UNSPECIFIED', 'UNSPECIFIED', 'UNSPECIFIED', ('UNSPECIFIED'), ('UNSPECIFIED'), ('UNSPECIFIED') ) ;
#107 = CALENDAR_DATE ( 2021, 28, 10 ) ;
#108 = FACE_OUTER_BOUND ( 'NONE', #61, .T. ) ;
#109 = FACE_BOUND ( 'NONE', #169, .T. ) ;
#110 = CARTESIAN_POINT ( 'NONE',  ( 1.326762908760390423E-13, -4.653657836759941941E-15, 38.00000000000000000 ) ) ;
#111 = CYLINDRICAL_SURFACE ( 'NONE', #145, 1.499999999999997780 ) ;
#112 = AXIS2_PLACEMENT_3D ( 'NONE', #154, #196, #155 ) ;
#113 = APPROVAL_DATE_TIME ( #217, #177 ) ;
#114 = ORGANIZATION ( 'UNSPECIFIED', 'UNSPECIFIED', '' ) ;
#115 = VERTEX_POINT ( 'NONE', #182 ) ;
#116 = VERTEX_POINT ( 'NONE', #130 ) ;
#117 = CARTESIAN_POINT ( 'NONE',  ( 3.939465370587953752E-16, -0.3099999999999999978, 0.1128307726225240420 ) ) ;
#118 = EDGE_LOOP ( 'NONE', ( #153 ) ) ;
#119 = PRODUCT_DEFINITION ( 'UNKNOWN', '', #191, #148 ) ;
#120 = PERSON_AND_ORGANIZATION ( #106, #114 ) ;
#121 = DIRECTION ( 'NONE',  ( 3.491481338843133355E-15, -1.224646799147353207E-16, 1.000000000000000000 ) ) ;
#122 = AXIS2_PLACEMENT_3D ( 'NONE', #110, #178, #10 ) ;
#123 = DATE_AND_TIME ( #189, #185 ) ;
#124 = DIRECTION ( 'NONE',  ( -3.491481338843133355E-15, 1.229791517316362731E-16, -1.000000000000000000 ) ) ;
#125 = DATE_TIME_ROLE ( 'classification_date' ) ;
#126 = PERSON_AND_ORGANIZATION ( #106, #114 ) ;
#127 = PLANE ( 'NONE',  #25 ) ;
#128 = LOCAL_TIME ( 11, 22, 27.00000000000000000, #162 ) ;
#129 = CC_DESIGN_APPROVAL ( #132, ( #5 ) ) ;
#130 = CARTESIAN_POINT ( 'NONE',  ( 1.745740669421566678E-14, 0.3099999999999993872, 5.000000000000000000 ) ) ;
#131 = EDGE_LOOP ( 'NONE', ( #137 ) ) ;
#132 = APPROVAL ( #74, 'UNSPECIFIED' ) ;
#133 = CARTESIAN_POINT ( 'NONE',  ( 3.296356573700261028E-14, 1.499999999999997113, 9.441140461006947149 ) ) ;
#134 = EDGE_LOOP ( 'NONE', ( #63 ) ) ;
#135 = APPROVAL_ROLE ( '' ) ;
#136 = AXIS2_PLACEMENT_3D ( 'NONE', #55, #121, #209 ) ;
#137 = ORIENTED_EDGE ( 'NONE', *, *, #9, .T. ) ;
#138 = PRODUCT_DEFINITION_SHAPE ( 'NONE', 'NONE',  #119 ) ;
#139 =( NAMED_UNIT ( * ) PLANE_ANGLE_UNIT ( ) SI_UNIT ( $, .RADIAN. ) );
#140 = PLANE ( 'NONE',  #60 ) ;
#141 = COORDINATED_UNIVERSAL_TIME_OFFSET ( 1, 0, .AHEAD. ) ;
#142 = CARTESIAN_POINT ( 'NONE',  ( 1.326762908760390423E-13, 8.998558695971077224E-33, 38.00000000000000000 ) ) ;
#143 = DIRECTION ( 'NONE',  ( 4.275831445896958607E-31, 1.000000000000000000, 1.224646799147353207E-16 ) ) ;
#144 = DIRECTION ( 'NONE',  ( 0.0000000000000000000, 1.000000000000000000, 0.0000000000000000000 ) ) ;
#145 = AXIS2_PLACEMENT_3D ( 'NONE', #172, #2, #175 ) ;
#146 = DIRECTION ( 'NONE',  ( 0.0000000000000000000, 0.0000000000000000000, 1.000000000000000000 ) ) ;
#147 = ORIENTED_EDGE ( 'NONE', *, *, #87, .F. ) ;
#148 = DESIGN_CONTEXT ( 'detailed design', #216, 'design' ) ;
#149 = EDGE_LOOP ( 'NONE', ( #52 ) ) ;
#150 = VERTEX_POINT ( 'NONE', #133 ) ;
#151 = DIRECTION ( 'NONE',  ( 0.0000000000000000000, 1.000000000000000000, 0.0000000000000000000 ) ) ;
#152 = MECHANICAL_CONTEXT ( 'NONE', #29, 'mechanical' ) ;
#153 = ORIENTED_EDGE ( 'NONE', *, *, #9, .F. ) ;
#154 = CARTESIAN_POINT ( 'NONE',  ( 1.745740669421566678E-14, -6.148957586581812915E-16, 5.000000000000000000 ) ) ;
#155 = DIRECTION ( 'NONE',  ( 0.0000000000000000000, 1.000000000000000000, 0.0000000000000000000 ) ) ;
#156 = DIRECTION ( 'NONE',  ( 3.491481338843133355E-15, -1.229791517316362731E-16, 1.000000000000000000 ) ) ;
#157 = APPROVAL_DATE_TIME ( #123, #132 ) ;
#158 = ADVANCED_FACE ( 'NONE', ( #211, #96 ), #38, .T. ) ;
#159 = CLOSED_SHELL ( 'NONE', ( #36, #24, #48 ) ) ;
#160 =( GEOMETRIC_REPRESENTATION_CONTEXT ( 3 ) GLOBAL_UNCERTAINTY_ASSIGNED_CONTEXT ( ( #80 ) ) GLOBAL_UNIT_ASSIGNED_CONTEXT ( ( #168, #139, #62 ) ) REPRESENTATION_CONTEXT ( 'NONE', 'WORKASPACE' ) );
#161 = ADVANCED_FACE ( 'NONE', ( #68 ), #140, .F. ) ;
#162 = COORDINATED_UNIVERSAL_TIME_OFFSET ( 1, 0, .AHEAD. ) ;
#163 = PERSON_AND_ORGANIZATION ( #106, #114 ) ;
#164 = ORIENTED_EDGE ( 'NONE', *, *, #210, .F. ) ;
#165 = CARTESIAN_POINT ( 'NONE',  ( 1.745740669421566678E-14, 0.3099999999999993872, 5.000000000000000000 ) ) ;
#166 = CARTESIAN_POINT ( 'NONE',  ( 1.326762908760390423E-13, -4.653657836759941941E-15, 38.00000000000000000 ) ) ;
#167 = ADVANCED_FACE ( 'NONE', ( #20 ), #23, .F. ) ;
#168 =( LENGTH_UNIT ( ) NAMED_UNIT ( * ) SI_UNIT ( .MILLI., .METRE. ) );
#169 = EDGE_LOOP ( 'NONE', ( #30 ) ) ;
#170 = LOCAL_TIME ( 11, 22, 27.00000000000000000, #51 ) ;
#171 = EDGE_LOOP ( 'NONE', ( #83 ) ) ;
#172 = CARTESIAN_POINT ( 'NONE',  ( 0.0000000000000000000, 0.0000000000000000000, 0.0000000000000000000 ) ) ;
#173 = FACE_OUTER_BOUND ( 'NONE', #184, .T. ) ;
#174 = PERSON_AND_ORGANIZATION_ROLE ( 'creator' ) ;
#175 = DIRECTION ( 'NONE',  ( 4.275831445896959482E-31, 1.000000000000000000, 1.224646799147353207E-16 ) ) ;
#176 = APPROVAL_PERSON_ORGANIZATION ( #163, #177, #135 ) ;
#177 = APPROVAL ( #44, 'UNSPECIFIED' ) ;
#178 = DIRECTION ( 'NONE',  ( -3.491481338843133355E-15, 1.224646799147353207E-16, -1.000000000000000000 ) ) ;
#179 = APPROVAL_PERSON_ORGANIZATION ( #33, #132, #195 ) ;
#180 = CC_DESIGN_PERSON_AND_ORGANIZATION_ASSIGNMENT ( #64, #204, ( #187 ) ) ;
#181 = CONICAL_SURFACE ( 'NONE', #88, 1.499999999999995559, 1.221730476396026388 ) ;
#182 = CARTESIAN_POINT ( 'NONE',  ( 1.316288464743861212E-13, 1.499999999999995337, 37.69999999999999574 ) ) ;
#183 = ORIENTED_EDGE ( 'NONE', *, *, #87, .T. ) ;
#184 = EDGE_LOOP ( 'NONE', ( #183 ) ) ;
#185 = LOCAL_TIME ( 11, 22, 27.00000000000000000, #37 ) ;
#186 = FACE_OUTER_BOUND ( 'NONE', #220, .T. ) ;
#187 = PRODUCT ( '962855', '962855', '', ( #152 ) ) ;
#188 = DIRECTION ( 'NONE',  ( -4.659507929969119254E-31, -1.000000000000000000, -1.311534886071174790E-16 ) ) ;
#189 = CALENDAR_DATE ( 2021, 28, 10 ) ;
#190 = DATE_AND_TIME ( #107, #78 ) ;
#191 = PRODUCT_DEFINITION_FORMATION_WITH_SPECIFIED_SOURCE ( 'ANY', '', #187, .NOT_KNOWN. ) ;
#192 = DIRECTION ( 'NONE',  ( 3.491481338843133355E-15, -1.224646799147353207E-16, 1.000000000000000000 ) ) ;
#193 = DIRECTION ( 'NONE',  ( -3.491481338843133355E-15, 1.224646799147353207E-16, -1.000000000000000000 ) ) ;
#194 = MANIFOLD_SOLID_BREP ( 'Corps-Déplacer/Copier1[2]', #159 ) ;
#195 = APPROVAL_ROLE ( '' ) ;
#196 = DIRECTION ( 'NONE',  ( -3.491481338843133355E-15, 1.229791517316362731E-16, -1.000000000000000000 ) ) ;
#197 = PERSON_AND_ORGANIZATION ( #106, #114 ) ;
#198 = DIRECTION ( 'NONE',  ( 0.0000000000000000000, 1.000000000000000000, 0.0000000000000000000 ) ) ;
#199 = CLOSED_SHELL ( 'NONE', ( #103, #158, #161, #206, #167 ) ) ;
#200 = CIRCLE ( 'NONE', #213, 0.3099999999999999978 ) ;
#201 = FACE_OUTER_BOUND ( 'NONE', #66, .T. ) ;
#202 = CC_DESIGN_SECURITY_CLASSIFICATION ( #5, ( #191 ) ) ;
#203 = DIRECTION ( 'NONE',  ( 1.000000000000000000, 0.0000000000000000000, 0.0000000000000000000 ) ) ;
#204 = PERSON_AND_ORGANIZATION_ROLE ( 'design_owner' ) ;
#205 = EDGE_CURVE ( 'NONE', #115, #115, #101, .T. ) ;
#206 = ADVANCED_FACE ( 'NONE', ( #109, #173 ), #50, .T. ) ;
#207 = DATE_TIME_ROLE ( 'creation_date' ) ;
#208 = DIRECTION ( 'NONE',  ( -3.491481338843133355E-15, 1.224646799147353207E-16, -1.000000000000000000 ) ) ;
#209 = DIRECTION ( 'NONE',  ( -4.275831445896958607E-31, -1.000000000000000000, -1.224646799147353207E-16 ) ) ;
#210 = EDGE_CURVE ( 'NONE', #47, #47, #200, .T. ) ;
#211 = FACE_OUTER_BOUND ( 'NONE', #223, .T. ) ;
#212 = AXIS2_PLACEMENT_3D ( 'NONE', #39, #89, #4 ) ;
#213 = AXIS2_PLACEMENT_3D ( 'NONE', #98, #85, #188 ) ;
#214 = AXIS2_PLACEMENT_3D ( 'NONE', #102, #146, #203 ) ;
#215 = CALENDAR_DATE ( 2021, 28, 10 ) ;
#216 = APPLICATION_CONTEXT ( 'configuration controlled 3d designs of mechanical parts and assemblies' ) ;
#217 = DATE_AND_TIME ( #222, #170 ) ;
#218 = EDGE_LOOP ( 'NONE', ( #13 ) ) ;
#219 = VERTEX_POINT ( 'NONE', #84 ) ;
#220 = EDGE_LOOP ( 'NONE', ( #164 ) ) ;
#221 = AXIS2_PLACEMENT_3D ( 'NONE', #166, #14, #151 ) ;
#222 = CALENDAR_DATE ( 2021, 28, 10 ) ;
#223 = EDGE_LOOP ( 'NONE', ( #65 ) ) ;
ENDSEC;
END-ISO-10303-21;
