ISO-10303-21;
HEADER;
FILE_DESCRIPTION (( 'STEP AP203' ),
    '1' );
FILE_NAME ('962854.step',
    '2021-10-28T09:22:26',
    ( '' ),
    ( '' ),
    'SwSTEP 2.0',
    'SolidWorks 2019',
    '' );
FILE_SCHEMA (( 'CONFIG_CONTROL_DESIGN' ));
ENDSEC;

DATA;
#1 = AXIS2_PLACEMENT_3D ( 'NONE', #94, #198, #4 ) ;
#2 = AXIS2_PLACEMENT_3D ( 'NONE', #201, #29, #200 ) ;
#3 = EDGE_LOOP ( 'NONE', ( #129 ) ) ;
#4 = DIRECTION ( 'NONE',  ( 0.0000000000000000000, 1.000000000000000000, 0.0000000000000000000 ) ) ;
#5 = ORIENTED_EDGE ( 'NONE', *, *, #40, .F. ) ;
#6 = AXIS2_PLACEMENT_3D ( 'NONE', #100, #136, #191 ) ;
#7 = PRODUCT_DEFINITION_FORMATION_WITH_SPECIFIED_SOURCE ( 'ANY', '', #168, .NOT_KNOWN. ) ;
#8 = ADVANCED_FACE ( 'NONE', ( #71 ), #37, .F. ) ;
#9 = DIRECTION ( 'NONE',  ( 4.275831445896959482E-31, 1.000000000000000000, 1.224646799147353207E-16 ) ) ;
#10 = CC_DESIGN_PERSON_AND_ORGANIZATION_ASSIGNMENT ( #83, #107, ( #7 ) ) ;
#11 = CARTESIAN_POINT ( 'NONE',  ( 1.571166602479410010E-14, -5.534061827923632412E-16, 4.500000000000000000 ) ) ;
#12 = CONICAL_SURFACE ( 'NONE', #108, 1.199999999999999956, 0.7853981633974453924 ) ;
#13 = DIRECTION ( 'NONE',  ( 4.293794133377662246E-31, 1.000000000000000000, 1.229791517316362731E-16 ) ) ;
#14 = FACE_BOUND ( 'NONE', #132, .T. ) ;
#15 = CARTESIAN_POINT ( 'NONE',  ( 1.571166602479410010E-14, 0.2999999999999994338, 4.500000000000000000 ) ) ;
#16 = PERSON_AND_ORGANIZATION ( #217, #162 ) ;
#17 = DATE_AND_TIME ( #45, #179 ) ;
#18 = APPROVAL_ROLE ( '' ) ;
#19 = APPROVAL_ROLE ( '' ) ;
#20 = CARTESIAN_POINT ( 'NONE',  ( 1.906192921252232855E-15, -6.686024735685322183E-17, 0.5459553513993090634 ) ) ;
#21 = FACE_OUTER_BOUND ( 'NONE', #58, .T. ) ;
#22 = ORIENTED_EDGE ( 'NONE', *, *, #208, .T. ) ;
#23 = CARTESIAN_POINT ( 'NONE',  ( 1.571166602479410010E-14, 1.124819836996389511E-32, 4.500000000000000000 ) ) ;
#24 = ADVANCED_FACE ( 'NONE', ( #21 ), #92, .T. ) ;
#25 = DIRECTION ( 'NONE',  ( -3.491481338843133355E-15, 1.224646799147353207E-16, -1.000000000000000000 ) ) ;
#26 =( NAMED_UNIT ( * ) SI_UNIT ( $, .STERADIAN. ) SOLID_ANGLE_UNIT ( ) );
#27 = DIRECTION ( 'NONE',  ( 0.0000000000000000000, 1.000000000000000000, 0.0000000000000000000 ) ) ;
#28 = AXIS2_PLACEMENT_3D ( 'NONE', #82, #66, #97 ) ;
#29 = DIRECTION ( 'NONE',  ( 3.491481338843133355E-15, -1.229791517316362731E-16, 1.000000000000000000 ) ) ;
#30 = DIRECTION ( 'NONE',  ( 0.0000000000000000000, 1.000000000000000000, 0.0000000000000000000 ) ) ;
#31 = APPROVAL_STATUS ( 'not_yet_approved' ) ;
#32 = CC_DESIGN_DATE_AND_TIME_ASSIGNMENT ( #220, #110, ( #128 ) ) ;
#33 = APPROVAL_STATUS ( 'not_yet_approved' ) ;
#34 = COORDINATED_UNIVERSAL_TIME_OFFSET ( 1, 0, .AHEAD. ) ;
#35 = PERSON_AND_ORGANIZATION ( #217, #162 ) ;
#36 = CC_DESIGN_APPROVAL ( #46, ( #7 ) ) ;
#37 = PLANE ( 'NONE',  #86 ) ;
#38 = EDGE_LOOP ( 'NONE', ( #131 ) ) ;
#39 = DIRECTION ( 'NONE',  ( -3.491481338843133355E-15, 1.229791517316362731E-16, -1.000000000000000000 ) ) ;
#40 = EDGE_CURVE ( 'NONE', #189, #189, #145, .T. ) ;
#41 = FACE_OUTER_BOUND ( 'NONE', #54, .T. ) ;
#42 = VERTEX_POINT ( 'NONE', #63 ) ;
#43 = APPROVAL_PERSON_ORGANIZATION ( #178, #46, #84 ) ;
#44 = FACE_OUTER_BOUND ( 'NONE', #196, .T. ) ;
#45 = CALENDAR_DATE ( 2021, 28, 10 ) ;
#46 = APPROVAL ( #124, 'UNSPECIFIED' ) ;
#47 = PERSON_AND_ORGANIZATION ( #217, #162 ) ;
#48 = APPROVAL_DATE_TIME ( #50, #185 ) ;
#49 = EDGE_CURVE ( 'NONE', #102, #102, #199, .T. ) ;
#50 = DATE_AND_TIME ( #180, #150 ) ;
#51 = APPROVAL_PERSON_ORGANIZATION ( #47, #144, #18 ) ;
#52 = ADVANCED_FACE ( 'NONE', ( #57, #41 ), #73, .T. ) ;
#53 = PRODUCT_DEFINITION_SHAPE ( 'NONE', 'NONE',  #125 ) ;
#54 = EDGE_LOOP ( 'NONE', ( #74 ) ) ;
#55 = EDGE_LOOP ( 'NONE', ( #22 ) ) ;
#56 = AXIS2_PLACEMENT_3D ( 'NONE', #135, #141, #99 ) ;
#57 = FACE_OUTER_BOUND ( 'NONE', #96, .T. ) ;
#58 = EDGE_LOOP ( 'NONE', ( #165 ) ) ;
#59 = ORIENTED_EDGE ( 'NONE', *, *, #109, .T. ) ;
#60 = CIRCLE ( 'NONE', #192, 0.2999999999999999889 ) ;
#61 = FACE_OUTER_BOUND ( 'NONE', #181, .T. ) ;
#62 = DIRECTION ( 'NONE',  ( -4.275831445896958607E-31, -1.000000000000000000, -1.224646799147353207E-16 ) ) ;
#63 = CARTESIAN_POINT ( 'NONE',  ( 3.812385842504470148E-16, -0.2999999999999999889, 0.1091910702798619265 ) ) ;
#64 = DIRECTION ( 'NONE',  ( -3.491481338843133355E-15, 1.229791517316362731E-16, -1.000000000000000000 ) ) ;
#65 = AXIS2_PLACEMENT_3D ( 'NONE', #148, #116, #9 ) ;
#66 = DIRECTION ( 'NONE',  ( 0.0000000000000000000, 0.0000000000000000000, 1.000000000000000000 ) ) ;
#67 = DATE_AND_TIME ( #106, #140 ) ;
#68 = CALENDAR_DATE ( 2021, 28, 10 ) ;
#69 = CLOSED_SHELL ( 'NONE', ( #52, #177, #8, #209, #167 ) ) ;
#70 = LOCAL_TIME ( 11, 22, 26.00000000000000000, #34 ) ;
#71 = FACE_OUTER_BOUND ( 'NONE', #164, .T. ) ;
#72 = CC_DESIGN_PERSON_AND_ORGANIZATION_ASSIGNMENT ( #16, #87, ( #128 ) ) ;
#73 = CYLINDRICAL_SURFACE ( 'NONE', #65, 1.499999999999997780 ) ;
#74 = ORIENTED_EDGE ( 'NONE', *, *, #49, .T. ) ;
#75 = DIRECTION ( 'NONE',  ( 3.491481338843133355E-15, -1.224646799147353207E-16, 1.000000000000000000 ) ) ;
#76 = DIRECTION ( 'NONE',  ( -4.814824860968089633E-31, -1.000000000000000000, -1.355252715606880543E-16 ) ) ;
#77 = FACE_OUTER_BOUND ( 'NONE', #55, .T. ) ;
#78 =( NAMED_UNIT ( * ) PLANE_ANGLE_UNIT ( ) SI_UNIT ( $, .RADIAN. ) );
#79 = CC_DESIGN_PERSON_AND_ORGANIZATION_ASSIGNMENT ( #35, #126, ( #7 ) ) ;
#80 = CARTESIAN_POINT ( 'NONE',  ( 1.571166602479410010E-14, 0.2999999999999994338, 4.500000000000000000 ) ) ;
#81 = CARTESIAN_POINT ( 'NONE',  ( 1.571166602479410010E-14, 1.124819836996389511E-32, 4.500000000000000000 ) ) ;
#82 = CARTESIAN_POINT ( 'NONE',  ( 0.0000000000000000000, 0.0000000000000000000, 0.0000000000000000000 ) ) ;
#83 = PERSON_AND_ORGANIZATION ( #217, #162 ) ;
#84 = APPROVAL_ROLE ( '' ) ;
#85 = COORDINATED_UNIVERSAL_TIME_OFFSET ( 1, 0, .AHEAD. ) ;
#86 = AXIS2_PLACEMENT_3D ( 'NONE', #197, #149, #113 ) ;
#87 = PERSON_AND_ORGANIZATION_ROLE ( 'classification_officer' ) ;
#88 = SECURITY_CLASSIFICATION_LEVEL ( 'unclassified' ) ;
#89 = ADVANCED_FACE ( 'NONE', ( #184 ), #133, .T. ) ;
#90 = CC_DESIGN_DATE_AND_TIME_ASSIGNMENT ( #17, #105, ( #125 ) ) ;
#91 = ORIENTED_EDGE ( 'NONE', *, *, #109, .F. ) ;
#92 = CONICAL_SURFACE ( 'NONE', #211, 1.499999999999995559, 1.221730476396026388 ) ;
#93 = APPROVAL_PERSON_ORGANIZATION ( #223, #185, #19 ) ;
#94 = CARTESIAN_POINT ( 'NONE',  ( 1.316288464743861212E-13, -4.616918432785521081E-15, 37.69999999999999574 ) ) ;
#95 = DIRECTION ( 'NONE',  ( -5.135813185032644414E-31, -1.000000000000000000, -1.445602896647343601E-16 ) ) ;
#96 = EDGE_LOOP ( 'NONE', ( #91 ) ) ;
#97 = DIRECTION ( 'NONE',  ( 1.000000000000000000, 0.0000000000000000000, 0.0000000000000000000 ) ) ;
#98 = EDGE_CURVE ( 'NONE', #42, #42, #60, .T. ) ;
#99 = DIRECTION ( 'NONE',  ( 0.0000000000000000000, 1.000000000000000000, 0.0000000000000000000 ) ) ;
#100 = CARTESIAN_POINT ( 'NONE',  ( 3.134812892508345383E-14, -1.104163513833387467E-15, 8.978460969082634691 ) ) ;
#101 = CC_DESIGN_SECURITY_CLASSIFICATION ( #128, ( #7 ) ) ;
#102 = VERTEX_POINT ( 'NONE', #202 ) ;
#103 = PLANE ( 'NONE',  #171 ) ;
#104 = COORDINATED_UNIVERSAL_TIME_OFFSET ( 1, 0, .AHEAD. ) ;
#105 = DATE_TIME_ROLE ( 'creation_date' ) ;
#106 = CALENDAR_DATE ( 2021, 28, 10 ) ;
#107 = PERSON_AND_ORGANIZATION_ROLE ( 'creator' ) ;
#108 = AXIS2_PLACEMENT_3D ( 'NONE', #152, #119, #30 ) ;
#109 = EDGE_CURVE ( 'NONE', #153, #153, #138, .T. ) ;
#110 = DATE_TIME_ROLE ( 'classification_date' ) ;
#111 = CC_DESIGN_PERSON_AND_ORGANIZATION_ASSIGNMENT ( #123, #159, ( #125 ) ) ;
#112 = ORIENTED_EDGE ( 'NONE', *, *, #172, .F. ) ;
#113 = DIRECTION ( 'NONE',  ( 4.275831445896958607E-31, 1.000000000000000000, 1.224646799147353207E-16 ) ) ;
#114 = CIRCLE ( 'NONE', #56, 1.199999999999999956 ) ;
#115 = CARTESIAN_POINT ( 'NONE',  ( 1.571166602479410010E-14, -5.534061827923632412E-16, 4.500000000000000000 ) ) ;
#116 = DIRECTION ( 'NONE',  ( -3.491481338843133355E-15, 1.224646799147353207E-16, -1.000000000000000000 ) ) ;
#117 = DIRECTION ( 'NONE',  ( 3.491481338843133355E-15, -1.224646799147353207E-16, 1.000000000000000000 ) ) ;
#118 = FACE_OUTER_BOUND ( 'NONE', #147, .T. ) ;
#119 = DIRECTION ( 'NONE',  ( -3.491481338843133355E-15, 1.224646799147353207E-16, -1.000000000000000000 ) ) ;
#120 = AXIS2_PLACEMENT_3D ( 'NONE', #115, #39, #161 ) ;
#121 = MECHANICAL_CONTEXT ( 'NONE', #143, 'mechanical' ) ;
#122 = MANIFOLD_SOLID_BREP ( 'Corps-Déplacer/Copier1[2]', #166 ) ;
#123 = PERSON_AND_ORGANIZATION ( #217, #162 ) ;
#124 = APPROVAL_STATUS ( 'not_yet_approved' ) ;
#125 = PRODUCT_DEFINITION ( 'UNKNOWN', '', #7, #127 ) ;
#126 = PERSON_AND_ORGANIZATION_ROLE ( 'design_supplier' ) ;
#127 = DESIGN_CONTEXT ( 'detailed design', #163, 'design' ) ;
#128 = SECURITY_CLASSIFICATION ( '', '', #88 ) ;
#129 = ORIENTED_EDGE ( 'NONE', *, *, #172, .T. ) ;
#130 = AXIS2_PLACEMENT_3D ( 'NONE', #214, #64, #13 ) ;
#131 = ORIENTED_EDGE ( 'NONE', *, *, #208, .F. ) ;
#132 = EDGE_LOOP ( 'NONE', ( #5 ) ) ;
#133 = PLANE ( 'NONE',  #134 ) ;
#134 = AXIS2_PLACEMENT_3D ( 'NONE', #23, #75, #151 ) ;
#135 = CARTESIAN_POINT ( 'NONE',  ( 1.326762908760390423E-13, -4.653657836759941941E-15, 38.00000000000000000 ) ) ;
#136 = DIRECTION ( 'NONE',  ( -3.491481338843133355E-15, 1.229791517316362731E-16, -1.000000000000000000 ) ) ;
#137 = VERTEX_POINT ( 'NONE', #15 ) ;
#138 = CIRCLE ( 'NONE', #6, 1.499999999999998224 ) ;
#139 = CARTESIAN_POINT ( 'NONE',  ( 1.326762908760390423E-13, 1.199999999999995293, 38.00000000000000000 ) ) ;
#140 = LOCAL_TIME ( 11, 22, 26.00000000000000000, #85 ) ;
#141 = DIRECTION ( 'NONE',  ( -3.491481338843133355E-15, 1.224646799147353207E-16, -1.000000000000000000 ) ) ;
#142 = APPLICATION_PROTOCOL_DEFINITION ( 'international standard', 'config_control_design', 1994, #163 ) ;
#143 = APPLICATION_CONTEXT ( 'configuration controlled 3d designs of mechanical parts and assemblies' ) ;
#144 = APPROVAL ( #33, 'UNSPECIFIED' ) ;
#145 = CIRCLE ( 'NONE', #120, 0.2999999999999999889 ) ;
#146 = CIRCLE ( 'NONE', #169, 0.2999999999999999889 ) ;
#147 = EDGE_LOOP ( 'NONE', ( #59 ) ) ;
#148 = CARTESIAN_POINT ( 'NONE',  ( 0.0000000000000000000, 0.0000000000000000000, 0.0000000000000000000 ) ) ;
#149 = DIRECTION ( 'NONE',  ( -3.491481338843133355E-15, 1.224646799147353207E-16, -1.000000000000000000 ) ) ;
#150 = LOCAL_TIME ( 11, 22, 26.00000000000000000, #205 ) ;
#151 = DIRECTION ( 'NONE',  ( -4.275831445896958607E-31, -1.000000000000000000, -1.224646799147353207E-16 ) ) ;
#152 = CARTESIAN_POINT ( 'NONE',  ( 1.326762908760390423E-13, -4.653657836759941941E-15, 38.00000000000000000 ) ) ;
#153 = VERTEX_POINT ( 'NONE', #218 ) ;
#154 = FACE_BOUND ( 'NONE', #3, .T. ) ;
#155 = CYLINDRICAL_SURFACE ( 'NONE', #130, 0.2999999999999999889 ) ;
#156 = LOCAL_TIME ( 11, 22, 26.00000000000000000, #160 ) ;
#157 = DATE_AND_TIME ( #68, #70 ) ;
#158 = APPROVAL_DATE_TIME ( #67, #144 ) ;
#159 = PERSON_AND_ORGANIZATION_ROLE ( 'creator' ) ;
#160 = COORDINATED_UNIVERSAL_TIME_OFFSET ( 1, 0, .AHEAD. ) ;
#161 = DIRECTION ( 'NONE',  ( 0.0000000000000000000, 1.000000000000000000, 0.0000000000000000000 ) ) ;
#162 = ORGANIZATION ( 'UNSPECIFIED', 'UNSPECIFIED', '' ) ;
#163 = APPLICATION_CONTEXT ( 'configuration controlled 3d designs of mechanical parts and assemblies' ) ;
#164 = EDGE_LOOP ( 'NONE', ( #112 ) ) ;
#165 = ORIENTED_EDGE ( 'NONE', *, *, #98, .T. ) ;
#166 = CLOSED_SHELL ( 'NONE', ( #89, #210, #24 ) ) ;
#167 = ADVANCED_FACE ( 'NONE', ( #44 ), #103, .F. ) ;
#168 = PRODUCT ( '962854', '962854', '', ( #121 ) ) ;
#169 = AXIS2_PLACEMENT_3D ( 'NONE', #11, #170, #27 ) ;
#170 = DIRECTION ( 'NONE',  ( -3.491481338843133355E-15, 1.229791517316362731E-16, -1.000000000000000000 ) ) ;
#171 = AXIS2_PLACEMENT_3D ( 'NONE', #81, #188, #62 ) ;
#172 = EDGE_CURVE ( 'NONE', #173, #173, #114, .T. ) ;
#173 = VERTEX_POINT ( 'NONE', #139 ) ;
#174 = PERSON_AND_ORGANIZATION ( #217, #162 ) ;
#175 = APPROVAL_DATE_TIME ( #157, #46 ) ;
#176 = SHAPE_DEFINITION_REPRESENTATION ( #53, #183 ) ;
#177 = ADVANCED_FACE ( 'NONE', ( #216, #154 ), #12, .T. ) ;
#178 = PERSON_AND_ORGANIZATION ( #217, #162 ) ;
#179 = LOCAL_TIME ( 11, 22, 26.00000000000000000, #104 ) ;
#180 = CALENDAR_DATE ( 2021, 28, 10 ) ;
#181 = EDGE_LOOP ( 'NONE', ( #182 ) ) ;
#182 = ORIENTED_EDGE ( 'NONE', *, *, #98, .F. ) ;
#183 = ADVANCED_BREP_SHAPE_REPRESENTATION ( '962854', ( #194, #122, #28 ), #187 ) ;
#184 = FACE_OUTER_BOUND ( 'NONE', #38, .T. ) ;
#185 = APPROVAL ( #31, 'UNSPECIFIED' ) ;
#186 = CARTESIAN_POINT ( 'NONE',  ( 3.812385842504471627E-16, -1.337204947137066070E-17, 0.1091910702798619681 ) ) ;
#187 =( GEOMETRIC_REPRESENTATION_CONTEXT ( 3 ) GLOBAL_UNCERTAINTY_ASSIGNED_CONTEXT ( ( #207 ) ) GLOBAL_UNIT_ASSIGNED_CONTEXT ( ( #219, #78, #26 ) ) REPRESENTATION_CONTEXT ( 'NONE', 'WORKASPACE' ) );
#188 = DIRECTION ( 'NONE',  ( 3.491481338843133355E-15, -1.224646799147353207E-16, 1.000000000000000000 ) ) ;
#189 = VERTEX_POINT ( 'NONE', #80 ) ;
#190 = CC_DESIGN_PERSON_AND_ORGANIZATION_ASSIGNMENT ( #174, #206, ( #168 ) ) ;
#191 = DIRECTION ( 'NONE',  ( 0.0000000000000000000, 1.000000000000000000, 0.0000000000000000000 ) ) ;
#192 = AXIS2_PLACEMENT_3D ( 'NONE', #186, #25, #76 ) ;
#193 = EDGE_LOOP ( 'NONE', ( #212 ) ) ;
#194 = MANIFOLD_SOLID_BREP ( 'Corps-Déplacer/Copier1[1]', #69 ) ;
#195 = CONICAL_SURFACE ( 'NONE', #2, 1.499999999999998224, 0.2617993877991501295 ) ;
#196 = EDGE_LOOP ( 'NONE', ( #213 ) ) ;
#197 = CARTESIAN_POINT ( 'NONE',  ( 1.326762908760390423E-13, 8.998558695971077224E-33, 38.00000000000000000 ) ) ;
#198 = DIRECTION ( 'NONE',  ( -3.491481338843133355E-15, 1.224646799147353207E-16, -1.000000000000000000 ) ) ;
#199 = CIRCLE ( 'NONE', #1, 1.499999999999999778 ) ;
#200 = DIRECTION ( 'NONE',  ( 0.0000000000000000000, -1.000000000000000000, 0.0000000000000000000 ) ) ;
#201 = CARTESIAN_POINT ( 'NONE',  ( 3.134812892508345383E-14, -1.104163513833387467E-15, 8.978460969082634691 ) ) ;
#202 = CARTESIAN_POINT ( 'NONE',  ( 1.316288464743861212E-13, 1.499999999999995337, 37.69999999999999574 ) ) ;
#203 = APPLICATION_PROTOCOL_DEFINITION ( 'international standard', 'config_control_design', 1994, #143 ) ;
#204 = CC_DESIGN_APPROVAL ( #144, ( #128 ) ) ;
#205 = COORDINATED_UNIVERSAL_TIME_OFFSET ( 1, 0, .AHEAD. ) ;
#206 = PERSON_AND_ORGANIZATION_ROLE ( 'design_owner' ) ;
#207 = UNCERTAINTY_MEASURE_WITH_UNIT (LENGTH_MEASURE( 1.000000000000000082E-05 ), #219, 'distance_accuracy_value', 'NONE');
#208 = EDGE_CURVE ( 'NONE', #137, #137, #146, .T. ) ;
#209 = ADVANCED_FACE ( 'NONE', ( #14, #118 ), #195, .T. ) ;
#210 = ADVANCED_FACE ( 'NONE', ( #77, #61 ), #155, .T. ) ;
#211 = AXIS2_PLACEMENT_3D ( 'NONE', #20, #117, #95 ) ;
#212 = ORIENTED_EDGE ( 'NONE', *, *, #49, .F. ) ;
#213 = ORIENTED_EDGE ( 'NONE', *, *, #40, .T. ) ;
#214 = CARTESIAN_POINT ( 'NONE',  ( 0.0000000000000000000, 0.0000000000000000000, 0.0000000000000000000 ) ) ;
#215 = CC_DESIGN_APPROVAL ( #185, ( #125 ) ) ;
#216 = FACE_OUTER_BOUND ( 'NONE', #193, .T. ) ;
#217 = PERSON ( 'UNSPECIFIED', 'UNSPECIFIED', 'UNSPECIFIED', ('UNSPECIFIED'), ('UNSPECIFIED'), ('UNSPECIFIED') ) ;
#218 = CARTESIAN_POINT ( 'NONE',  ( 3.134812892508345383E-14, 1.499999999999997113, 8.978460969082634691 ) ) ;
#219 =( LENGTH_UNIT ( ) NAMED_UNIT ( * ) SI_UNIT ( .MILLI., .METRE. ) );
#220 = DATE_AND_TIME ( #222, #156 ) ;
#221 = PRODUCT_RELATED_PRODUCT_CATEGORY ( 'detail', '', ( #168 ) ) ;
#222 = CALENDAR_DATE ( 2021, 28, 10 ) ;
#223 = PERSON_AND_ORGANIZATION ( #217, #162 ) ;
ENDSEC;
END-ISO-10303-21;
