ISO-10303-21;
HEADER;
FILE_DESCRIPTION (( 'STEP AP203' ),
    '1' );
FILE_NAME ('962853.step',
    '2021-10-28T09:22:25',
    ( '' ),
    ( '' ),
    'SwSTEP 2.0',
    'SolidWorks 2019',
    '' );
FILE_SCHEMA (( 'CONFIG_CONTROL_DESIGN' ));
ENDSEC;

DATA;
#1 = ADVANCED_FACE ( 'NONE', ( #89 ), #159, .F. ) ;
#2 = CARTESIAN_POINT ( 'NONE',  ( 0.0000000000000000000, 0.0000000000000000000, 0.0000000000000000000 ) ) ;
#3 = CC_DESIGN_PERSON_AND_ORGANIZATION_ASSIGNMENT ( #24, #79, ( #48 ) ) ;
#4 = APPLICATION_CONTEXT ( 'configuration controlled 3d designs of mechanical parts and assemblies' ) ;
#5 = SECURITY_CLASSIFICATION ( '', '', #26 ) ;
#6 = CARTESIAN_POINT ( 'NONE',  ( 1.326762908760390423E-13, 1.199999999999995293, 38.00000000000000000 ) ) ;
#7 = PERSON ( 'UNSPECIFIED', 'UNSPECIFIED', 'UNSPECIFIED', ('UNSPECIFIED'), ('UNSPECIFIED'), ('UNSPECIFIED') ) ;
#8 = CALENDAR_DATE ( 2021, 28, 10 ) ;
#9 = CARTESIAN_POINT ( 'NONE',  ( 1.571166602479410010E-14, -5.534061827923632412E-16, 4.500000000000000000 ) ) ;
#10 = DIRECTION ( 'NONE',  ( 0.0000000000000000000, -1.000000000000000000, 0.0000000000000000000 ) ) ;
#11 = CARTESIAN_POINT ( 'NONE',  ( 3.494687022295768288E-16, -1.225771201542311758E-17, 0.1000918144232068874 ) ) ;
#12 = DIRECTION ( 'NONE',  ( 0.0000000000000000000, 1.000000000000000000, 0.0000000000000000000 ) ) ;
#13 = CIRCLE ( 'NONE', #173, 1.499999999999999778 ) ;
#14 = LOCAL_TIME ( 11, 22, 25.00000000000000000, #18 ) ;
#15 = CIRCLE ( 'NONE', #145, 0.2750000000000000222 ) ;
#16 = ADVANCED_FACE ( 'NONE', ( #112 ), #95, .T. ) ;
#17 = APPLICATION_PROTOCOL_DEFINITION ( 'international standard', 'config_control_design', 1994, #49 ) ;
#18 = COORDINATED_UNIVERSAL_TIME_OFFSET ( 1, 0, .AHEAD. ) ;
#19 = CALENDAR_DATE ( 2021, 28, 10 ) ;
#20 = ORIENTED_EDGE ( 'NONE', *, *, #23, .F. ) ;
#21 = AXIS2_PLACEMENT_3D ( 'NONE', #186, #50, #149 ) ;
#22 = CC_DESIGN_SECURITY_CLASSIFICATION ( #5, ( #48 ) ) ;
#23 = EDGE_CURVE ( 'NONE', #164, #164, #180, .T. ) ;
#24 = PERSON_AND_ORGANIZATION ( #7, #52 ) ;
#25 = EDGE_LOOP ( 'NONE', ( #157 ) ) ;
#26 = SECURITY_CLASSIFICATION_LEVEL ( 'unclassified' ) ;
#27 = FACE_OUTER_BOUND ( 'NONE', #72, .T. ) ;
#28 = DIRECTION ( 'NONE',  ( -3.491481338843133355E-15, 1.224646799147353207E-16, -1.000000000000000000 ) ) ;
#29 = AXIS2_PLACEMENT_3D ( 'NONE', #202, #189, #154 ) ;
#30 = FACE_OUTER_BOUND ( 'NONE', #53, .T. ) ;
#31 = CC_DESIGN_PERSON_AND_ORGANIZATION_ASSIGNMENT ( #137, #67, ( #5 ) ) ;
#32 = DIRECTION ( 'NONE',  ( 3.491481338843133355E-15, -1.224646799147353207E-16, 1.000000000000000000 ) ) ;
#33 = ADVANCED_BREP_SHAPE_REPRESENTATION ( '962853', ( #191, #192, #124 ), #104 ) ;
#34 = AXIS2_PLACEMENT_3D ( 'NONE', #203, #99, #200 ) ;
#35 = ADVANCED_FACE ( 'NONE', ( #27, #65 ), #139, .T. ) ;
#36 =( NAMED_UNIT ( * ) PLANE_ANGLE_UNIT ( ) SI_UNIT ( $, .RADIAN. ) );
#37 = CARTESIAN_POINT ( 'NONE',  ( 1.571166602479410010E-14, 0.2749999999999994671, 4.500000000000000000 ) ) ;
#38 = DIRECTION ( 'NONE',  ( -4.275831445896958607E-31, -1.000000000000000000, -1.224646799147353207E-16 ) ) ;
#39 = CALENDAR_DATE ( 2021, 28, 10 ) ;
#40 = ORIENTED_EDGE ( 'NONE', *, *, #205, .F. ) ;
#41 = APPROVAL_STATUS ( 'not_yet_approved' ) ;
#42 = PERSON_AND_ORGANIZATION_ROLE ( 'creator' ) ;
#43 = DIRECTION ( 'NONE',  ( 3.491481338843133355E-15, -1.229791517316362731E-16, 1.000000000000000000 ) ) ;
#44 = FACE_OUTER_BOUND ( 'NONE', #70, .T. ) ;
#45 = DIRECTION ( 'NONE',  ( -3.491481338843133355E-15, 1.229791517316362731E-16, -1.000000000000000000 ) ) ;
#46 = APPROVAL ( #132, 'UNSPECIFIED' ) ;
#47 = CONICAL_SURFACE ( 'NONE', #108, 1.199999999999999956, 0.7853981633974453924 ) ;
#48 = PRODUCT_DEFINITION_FORMATION_WITH_SPECIFIED_SOURCE ( 'ANY', '', #117, .NOT_KNOWN. ) ;
#49 = APPLICATION_CONTEXT ( 'configuration controlled 3d designs of mechanical parts and assemblies' ) ;
#50 = DIRECTION ( 'NONE',  ( -3.491481338843133355E-15, 1.229791517316362731E-16, -1.000000000000000000 ) ) ;
#51 = EDGE_CURVE ( 'NONE', #109, #109, #142, .T. ) ;
#52 = ORGANIZATION ( 'UNSPECIFIED', 'UNSPECIFIED', '' ) ;
#53 = EDGE_LOOP ( 'NONE', ( #129 ) ) ;
#54 = CALENDAR_DATE ( 2021, 28, 10 ) ;
#55 = VERTEX_POINT ( 'NONE', #97 ) ;
#56 = AXIS2_PLACEMENT_3D ( 'NONE', #9, #122, #12 ) ;
#57 = CC_DESIGN_APPROVAL ( #175, ( #123 ) ) ;
#58 = CARTESIAN_POINT ( 'NONE',  ( 1.571166602479410010E-14, 1.124819836996389511E-32, 4.500000000000000000 ) ) ;
#59 = MECHANICAL_CONTEXT ( 'NONE', #4, 'mechanical' ) ;
#60 = EDGE_LOOP ( 'NONE', ( #40 ) ) ;
#61 = CARTESIAN_POINT ( 'NONE',  ( 1.571166602479410010E-14, 0.2749999999999994671, 4.500000000000000000 ) ) ;
#62 = FACE_BOUND ( 'NONE', #183, .T. ) ;
#63 = FACE_BOUND ( 'NONE', #110, .T. ) ;
#64 = CARTESIAN_POINT ( 'NONE',  ( 1.326762908760390423E-13, 8.998558695971077224E-33, 38.00000000000000000 ) ) ;
#65 = FACE_OUTER_BOUND ( 'NONE', #78, .T. ) ;
#66 = LOCAL_TIME ( 11, 22, 25.00000000000000000, #195 ) ;
#67 = PERSON_AND_ORGANIZATION_ROLE ( 'classification_officer' ) ;
#68 = CC_DESIGN_PERSON_AND_ORGANIZATION_ASSIGNMENT ( #216, #150, ( #48 ) ) ;
#69 = CONICAL_SURFACE ( 'NONE', #168, 1.499999999999998224, 0.2617993877991500740 ) ;
#70 = EDGE_LOOP ( 'NONE', ( #126 ) ) ;
#71 = PERSON_AND_ORGANIZATION ( #7, #52 ) ;
#72 = EDGE_LOOP ( 'NONE', ( #177 ) ) ;
#73 = COORDINATED_UNIVERSAL_TIME_OFFSET ( 1, 0, .AHEAD. ) ;
#74 = ORIENTED_EDGE ( 'NONE', *, *, #205, .T. ) ;
#75 = DATE_AND_TIME ( #54, #14 ) ;
#76 =( NAMED_UNIT ( * ) SI_UNIT ( $, .STERADIAN. ) SOLID_ANGLE_UNIT ( ) );
#77 = CC_DESIGN_DATE_AND_TIME_ASSIGNMENT ( #75, #146, ( #5 ) ) ;
#78 = EDGE_LOOP ( 'NONE', ( #163 ) ) ;
#79 = PERSON_AND_ORGANIZATION_ROLE ( 'creator' ) ;
#80 = DATE_TIME_ROLE ( 'creation_date' ) ;
#81 = DIRECTION ( 'NONE',  ( 4.293794133377662246E-31, 1.000000000000000000, 1.229791517316362731E-16 ) ) ;
#82 = DIRECTION ( 'NONE',  ( -3.491481338843133355E-15, 1.224646799147353207E-16, -1.000000000000000000 ) ) ;
#83 = FACE_OUTER_BOUND ( 'NONE', #60, .T. ) ;
#84 = CARTESIAN_POINT ( 'NONE',  ( 0.0000000000000000000, 0.0000000000000000000, 0.0000000000000000000 ) ) ;
#85 = AXIS2_PLACEMENT_3D ( 'NONE', #58, #161, #38 ) ;
#86 = EDGE_CURVE ( 'NONE', #144, #144, #156, .T. ) ;
#87 = CC_DESIGN_DATE_AND_TIME_ASSIGNMENT ( #211, #80, ( #123 ) ) ;
#88 = CARTESIAN_POINT ( 'NONE',  ( 3.494687022295767795E-16, -0.2750000000000000222, 0.1000918144232068735 ) ) ;
#89 = FACE_OUTER_BOUND ( 'NONE', #93, .T. ) ;
#90 = COORDINATED_UNIVERSAL_TIME_OFFSET ( 1, 0, .AHEAD. ) ;
#91 = PERSON_AND_ORGANIZATION ( #7, #52 ) ;
#92 = EDGE_CURVE ( 'NONE', #113, #113, #207, .T. ) ;
#93 = EDGE_LOOP ( 'NONE', ( #131 ) ) ;
#94 = DATE_AND_TIME ( #19, #66 ) ;
#95 = CONICAL_SURFACE ( 'NONE', #34, 1.499999999999995559, 1.221730476396026388 ) ;
#96 = APPROVAL_PERSON_ORGANIZATION ( #135, #141, #214 ) ;
#97 = CARTESIAN_POINT ( 'NONE',  ( 1.316288464743861212E-13, 1.499999999999995337, 37.69999999999999574 ) ) ;
#98 = PERSON_AND_ORGANIZATION ( #7, #52 ) ;
#99 = DIRECTION ( 'NONE',  ( 3.491481338843133355E-15, -1.224646799147353207E-16, 1.000000000000000000 ) ) ;
#100 = LOCAL_TIME ( 11, 22, 25.00000000000000000, #73 ) ;
#101 = PRODUCT_DEFINITION_SHAPE ( 'NONE', 'NONE',  #123 ) ;
#102 = DIRECTION ( 'NONE',  ( 4.275831445896959482E-31, 1.000000000000000000, 1.224646799147353207E-16 ) ) ;
#103 = DIRECTION ( 'NONE',  ( -3.491481338843133355E-15, 1.224646799147353207E-16, -1.000000000000000000 ) ) ;
#104 =( GEOMETRIC_REPRESENTATION_CONTEXT ( 3 ) GLOBAL_UNCERTAINTY_ASSIGNED_CONTEXT ( ( #221 ) ) GLOBAL_UNIT_ASSIGNED_CONTEXT ( ( #130, #36, #76 ) ) REPRESENTATION_CONTEXT ( 'NONE', 'WORKASPACE' ) );
#105 = EDGE_CURVE ( 'NONE', #55, #55, #13, .T. ) ;
#106 = CC_DESIGN_PERSON_AND_ORGANIZATION_ASSIGNMENT ( #71, #42, ( #123 ) ) ;
#107 = DESIGN_CONTEXT ( 'detailed design', #49, 'design' ) ;
#108 = AXIS2_PLACEMENT_3D ( 'NONE', #190, #223, #138 ) ;
#109 = VERTEX_POINT ( 'NONE', #178 ) ;
#110 = EDGE_LOOP ( 'NONE', ( #134 ) ) ;
#111 = PERSON_AND_ORGANIZATION_ROLE ( 'design_owner' ) ;
#112 = FACE_OUTER_BOUND ( 'NONE', #210, .T. ) ;
#113 = VERTEX_POINT ( 'NONE', #6 ) ;
#114 = EDGE_LOOP ( 'NONE', ( #213 ) ) ;
#115 = DIRECTION ( 'NONE',  ( 0.0000000000000000000, 0.0000000000000000000, 1.000000000000000000 ) ) ;
#116 = DIRECTION ( 'NONE',  ( 0.0000000000000000000, 1.000000000000000000, 0.0000000000000000000 ) ) ;
#117 = PRODUCT ( '962853', '962853', '', ( #59 ) ) ;
#118 = FACE_OUTER_BOUND ( 'NONE', #114, .T. ) ;
#119 = CARTESIAN_POINT ( 'NONE',  ( 0.0000000000000000000, 0.0000000000000000000, 0.0000000000000000000 ) ) ;
#120 = AXIS2_PLACEMENT_3D ( 'NONE', #84, #45, #81 ) ;
#121 = APPROVAL_PERSON_ORGANIZATION ( #91, #46, #176 ) ;
#122 = DIRECTION ( 'NONE',  ( -3.491481338843133355E-15, 1.229791517316362731E-16, -1.000000000000000000 ) ) ;
#123 = PRODUCT_DEFINITION ( 'UNKNOWN', '', #48, #107 ) ;
#124 = AXIS2_PLACEMENT_3D ( 'NONE', #2, #115, #184 ) ;
#125 = CC_DESIGN_APPROVAL ( #141, ( #5 ) ) ;
#126 = ORIENTED_EDGE ( 'NONE', *, *, #51, .T. ) ;
#127 = CLOSED_SHELL ( 'NONE', ( #35, #206, #167, #158, #1 ) ) ;
#128 = DATE_AND_TIME ( #8, #100 ) ;
#129 = ORIENTED_EDGE ( 'NONE', *, *, #86, .T. ) ;
#130 =( LENGTH_UNIT ( ) NAMED_UNIT ( * ) SI_UNIT ( .MILLI., .METRE. ) );
#131 = ORIENTED_EDGE ( 'NONE', *, *, #23, .T. ) ;
#132 = APPROVAL_STATUS ( 'not_yet_approved' ) ;
#133 = APPROVAL_ROLE ( '' ) ;
#134 = ORIENTED_EDGE ( 'NONE', *, *, #92, .T. ) ;
#135 = PERSON_AND_ORGANIZATION ( #7, #52 ) ;
#136 = CARTESIAN_POINT ( 'NONE',  ( 3.167388856883948256E-14, -1.115637624896742006E-15, 9.071762239271857098 ) ) ;
#137 = PERSON_AND_ORGANIZATION ( #7, #52 ) ;
#138 = DIRECTION ( 'NONE',  ( 0.0000000000000000000, 1.000000000000000000, 0.0000000000000000000 ) ) ;
#139 = CYLINDRICAL_SURFACE ( 'NONE', #204, 1.499999999999997780 ) ;
#140 = DIRECTION ( 'NONE',  ( 4.275831445896958607E-31, 1.000000000000000000, 1.224646799147353207E-16 ) ) ;
#141 = APPROVAL ( #41, 'UNSPECIFIED' ) ;
#142 = CIRCLE ( 'NONE', #29, 1.499999999999998224 ) ;
#143 = EDGE_LOOP ( 'NONE', ( #209 ) ) ;
#144 = VERTEX_POINT ( 'NONE', #61 ) ;
#145 = AXIS2_PLACEMENT_3D ( 'NONE', #11, #219, #218 ) ;
#146 = DATE_TIME_ROLE ( 'classification_date' ) ;
#147 = APPLICATION_PROTOCOL_DEFINITION ( 'international standard', 'config_control_design', 1994, #4 ) ;
#148 = APPROVAL_STATUS ( 'not_yet_approved' ) ;
#149 = DIRECTION ( 'NONE',  ( 0.0000000000000000000, 1.000000000000000000, 0.0000000000000000000 ) ) ;
#150 = PERSON_AND_ORGANIZATION_ROLE ( 'design_supplier' ) ;
#151 = PLANE ( 'NONE',  #155 ) ;
#152 = DIRECTION ( 'NONE',  ( -3.491481338843133355E-15, 1.224646799147353207E-16, -1.000000000000000000 ) ) ;
#153 = PLANE ( 'NONE',  #198 ) ;
#154 = DIRECTION ( 'NONE',  ( 0.0000000000000000000, 1.000000000000000000, 0.0000000000000000000 ) ) ;
#155 = AXIS2_PLACEMENT_3D ( 'NONE', #64, #152, #140 ) ;
#156 = CIRCLE ( 'NONE', #56, 0.2750000000000000222 ) ;
#157 = ORIENTED_EDGE ( 'NONE', *, *, #92, .F. ) ;
#158 = ADVANCED_FACE ( 'NONE', ( #62, #44 ), #69, .T. ) ;
#159 = PLANE ( 'NONE',  #85 ) ;
#160 = DATE_AND_TIME ( #215, #222 ) ;
#161 = DIRECTION ( 'NONE',  ( 3.491481338843133355E-15, -1.224646799147353207E-16, 1.000000000000000000 ) ) ;
#162 = PRODUCT_RELATED_PRODUCT_CATEGORY ( 'detail', '', ( #117 ) ) ;
#163 = ORIENTED_EDGE ( 'NONE', *, *, #105, .T. ) ;
#164 = VERTEX_POINT ( 'NONE', #37 ) ;
#165 = SHAPE_DEFINITION_REPRESENTATION ( #101, #33 ) ;
#166 = CYLINDRICAL_SURFACE ( 'NONE', #120, 0.2750000000000000222 ) ;
#167 = ADVANCED_FACE ( 'NONE', ( #199 ), #151, .F. ) ;
#168 = AXIS2_PLACEMENT_3D ( 'NONE', #136, #43, #10 ) ;
#169 = DIRECTION ( 'NONE',  ( 0.0000000000000000000, 1.000000000000000000, 0.0000000000000000000 ) ) ;
#170 = CARTESIAN_POINT ( 'NONE',  ( 1.316288464743861212E-13, -4.616918432785521081E-15, 37.69999999999999574 ) ) ;
#171 = DIRECTION ( 'NONE',  ( -4.275831445896958607E-31, -1.000000000000000000, -1.224646799147353207E-16 ) ) ;
#172 = ADVANCED_FACE ( 'NONE', ( #30, #83 ), #166, .T. ) ;
#173 = AXIS2_PLACEMENT_3D ( 'NONE', #170, #103, #169 ) ;
#174 = CC_DESIGN_APPROVAL ( #46, ( #48 ) ) ;
#175 = APPROVAL ( #148, 'UNSPECIFIED' ) ;
#176 = APPROVAL_ROLE ( '' ) ;
#177 = ORIENTED_EDGE ( 'NONE', *, *, #51, .F. ) ;
#178 = CARTESIAN_POINT ( 'NONE',  ( 3.167388856883948256E-14, 1.499999999999997113, 9.071762239271857098 ) ) ;
#179 = PERSON_AND_ORGANIZATION ( #7, #52 ) ;
#180 = CIRCLE ( 'NONE', #21, 0.2750000000000000222 ) ;
#181 = APPROVAL_DATE_TIME ( #94, #46 ) ;
#182 = CC_DESIGN_PERSON_AND_ORGANIZATION_ASSIGNMENT ( #179, #111, ( #117 ) ) ;
#183 = EDGE_LOOP ( 'NONE', ( #20 ) ) ;
#184 = DIRECTION ( 'NONE',  ( 1.000000000000000000, 0.0000000000000000000, 0.0000000000000000000 ) ) ;
#185 = CARTESIAN_POINT ( 'NONE',  ( 1.326762908760390423E-13, -4.653657836759941941E-15, 38.00000000000000000 ) ) ;
#186 = CARTESIAN_POINT ( 'NONE',  ( 1.571166602479410010E-14, -5.534061827923632412E-16, 4.500000000000000000 ) ) ;
#187 = AXIS2_PLACEMENT_3D ( 'NONE', #185, #28, #116 ) ;
#188 = LOCAL_TIME ( 11, 22, 25.00000000000000000, #196 ) ;
#189 = DIRECTION ( 'NONE',  ( -3.491481338843133355E-15, 1.229791517316362731E-16, -1.000000000000000000 ) ) ;
#190 = CARTESIAN_POINT ( 'NONE',  ( 1.326762908760390423E-13, -4.653657836759941941E-15, 38.00000000000000000 ) ) ;
#191 = MANIFOLD_SOLID_BREP ( 'Corps-Déplacer/Copier1[1]', #127 ) ;
#192 = MANIFOLD_SOLID_BREP ( 'Corps-Déplacer/Copier1[2]', #201 ) ;
#193 = VERTEX_POINT ( 'NONE', #88 ) ;
#194 = APPROVAL_PERSON_ORGANIZATION ( #98, #175, #133 ) ;
#195 = COORDINATED_UNIVERSAL_TIME_OFFSET ( 1, 0, .AHEAD. ) ;
#196 = COORDINATED_UNIVERSAL_TIME_OFFSET ( 1, 0, .AHEAD. ) ;
#197 = APPROVAL_DATE_TIME ( #160, #141 ) ;
#198 = AXIS2_PLACEMENT_3D ( 'NONE', #220, #32, #171 ) ;
#199 = FACE_OUTER_BOUND ( 'NONE', #25, .T. ) ;
#200 = DIRECTION ( 'NONE',  ( -5.135813185032644414E-31, -1.000000000000000000, -1.445602896647343601E-16 ) ) ;
#201 = CLOSED_SHELL ( 'NONE', ( #208, #172, #16 ) ) ;
#202 = CARTESIAN_POINT ( 'NONE',  ( 3.167388856883948256E-14, -1.115637624896742006E-15, 9.071762239271857098 ) ) ;
#203 = CARTESIAN_POINT ( 'NONE',  ( 1.906192921252232855E-15, -6.686024735685322183E-17, 0.5459553513993090634 ) ) ;
#204 = AXIS2_PLACEMENT_3D ( 'NONE', #119, #82, #102 ) ;
#205 = EDGE_CURVE ( 'NONE', #193, #193, #15, .T. ) ;
#206 = ADVANCED_FACE ( 'NONE', ( #118, #63 ), #47, .T. ) ;
#207 = CIRCLE ( 'NONE', #187, 1.199999999999999956 ) ;
#208 = ADVANCED_FACE ( 'NONE', ( #217 ), #153, .T. ) ;
#209 = ORIENTED_EDGE ( 'NONE', *, *, #86, .F. ) ;
#210 = EDGE_LOOP ( 'NONE', ( #74 ) ) ;
#211 = DATE_AND_TIME ( #39, #188 ) ;
#212 = APPROVAL_DATE_TIME ( #128, #175 ) ;
#213 = ORIENTED_EDGE ( 'NONE', *, *, #105, .F. ) ;
#214 = APPROVAL_ROLE ( '' ) ;
#215 = CALENDAR_DATE ( 2021, 28, 10 ) ;
#216 = PERSON_AND_ORGANIZATION ( #7, #52 ) ;
#217 = FACE_OUTER_BOUND ( 'NONE', #143, .T. ) ;
#218 = DIRECTION ( 'NONE',  ( -3.501690807976792142E-31, -1.000000000000000000, -9.856383386231857595E-17 ) ) ;
#219 = DIRECTION ( 'NONE',  ( -3.491481338843133355E-15, 1.224646799147353207E-16, -1.000000000000000000 ) ) ;
#220 = CARTESIAN_POINT ( 'NONE',  ( 1.571166602479410010E-14, 1.124819836996389511E-32, 4.500000000000000000 ) ) ;
#221 = UNCERTAINTY_MEASURE_WITH_UNIT (LENGTH_MEASURE( 1.000000000000000082E-05 ), #130, 'distance_accuracy_value', 'NONE');
#222 = LOCAL_TIME ( 11, 22, 25.00000000000000000, #90 ) ;
#223 = DIRECTION ( 'NONE',  ( -3.491481338843133355E-15, 1.224646799147353207E-16, -1.000000000000000000 ) ) ;
ENDSEC;
END-ISO-10303-21;
