ISO-10303-21;
HEADER;
FILE_DESCRIPTION (( 'STEP AP203' ),
    '1' );
FILE_NAME ('962852.step',
    '2021-10-28T09:22:25',
    ( '' ),
    ( '' ),
    'SwSTEP 2.0',
    'SolidWorks 2019',
    '' );
FILE_SCHEMA (( 'CONFIG_CONTROL_DESIGN' ));
ENDSEC;

DATA;
#1 = VERTEX_POINT ( 'NONE', #22 ) ;
#2 = DIRECTION ( 'NONE',  ( -3.491481338843133355E-15, 1.224646799147353207E-16, -1.000000000000000000 ) ) ;
#3 = FACE_OUTER_BOUND ( 'NONE', #143, .T. ) ;
#4 = AXIS2_PLACEMENT_3D ( 'NONE', #42, #2, #194 ) ;
#5 = CC_DESIGN_APPROVAL ( #144, ( #11 ) ) ;
#6 = DIRECTION ( 'NONE',  ( 4.275831445896959482E-31, 1.000000000000000000, 1.224646799147353207E-16 ) ) ;
#7 = COORDINATED_UNIVERSAL_TIME_OFFSET ( 1, 0, .AHEAD. ) ;
#8 = ADVANCED_FACE ( 'NONE', ( #89, #189 ), #33, .T. ) ;
#9 = DATE_AND_TIME ( #140, #167 ) ;
#10 = CC_DESIGN_DATE_AND_TIME_ASSIGNMENT ( #169, #14, ( #11 ) ) ;
#11 = SECURITY_CLASSIFICATION ( '', '', #67 ) ;
#12 = ADVANCED_BREP_SHAPE_REPRESENTATION ( '962852', ( #128, #192, #187 ), #66 ) ;
#13 = APPROVAL_DATE_TIME ( #185, #82 ) ;
#14 = DATE_TIME_ROLE ( 'classification_date' ) ;
#15 = AXIS2_PLACEMENT_3D ( 'NONE', #90, #112, #23 ) ;
#16 = ORIENTED_EDGE ( 'NONE', *, *, #92, .T. ) ;
#17 = ORIENTED_EDGE ( 'NONE', *, *, #56, .F. ) ;
#18 = APPLICATION_CONTEXT ( 'configuration controlled 3d designs of mechanical parts and assemblies' ) ;
#19 = DIRECTION ( 'NONE',  ( -3.491481338843133355E-15, 1.224646799147353207E-16, -1.000000000000000000 ) ) ;
#20 = PLANE ( 'NONE',  #199 ) ;
#21 = DIRECTION ( 'NONE',  ( 0.0000000000000000000, 1.000000000000000000, 0.0000000000000000000 ) ) ;
#22 = CARTESIAN_POINT ( 'NONE',  ( 1.316288464743861212E-13, 1.499999999999995337, 37.69999999999999574 ) ) ;
#23 = DIRECTION ( 'NONE',  ( 0.0000000000000000000, 1.000000000000000000, 0.0000000000000000000 ) ) ;
#24 = EDGE_CURVE ( 'NONE', #41, #41, #173, .T. ) ;
#25 = PRODUCT_RELATED_PRODUCT_CATEGORY ( 'detail', '', ( #70 ) ) ;
#26 = PRODUCT_DEFINITION_SHAPE ( 'NONE', 'NONE',  #88 ) ;
#27 = PERSON_AND_ORGANIZATION_ROLE ( 'creator' ) ;
#28 = ADVANCED_FACE ( 'NONE', ( #59, #148 ), #206, .T. ) ;
#29 = CALENDAR_DATE ( 2021, 28, 10 ) ;
#30 = ORIENTED_EDGE ( 'NONE', *, *, #165, .T. ) ;
#31 = APPLICATION_CONTEXT ( 'configuration controlled 3d designs of mechanical parts and assemblies' ) ;
#32 = ORIENTED_EDGE ( 'NONE', *, *, #24, .T. ) ;
#33 = CYLINDRICAL_SURFACE ( 'NONE', #52, 0.2650000000000000133 ) ;
#34 = CC_DESIGN_PERSON_AND_ORGANIZATION_ASSIGNMENT ( #46, #202, ( #88 ) ) ;
#35 = EDGE_LOOP ( 'NONE', ( #142 ) ) ;
#36 = DIRECTION ( 'NONE',  ( 0.0000000000000000000, 1.000000000000000000, 0.0000000000000000000 ) ) ;
#37 = CARTESIAN_POINT ( 'NONE',  ( 3.367607494212283698E-16, -0.2650000000000000133, 0.09645211208054475793 ) ) ;
#38 = DIRECTION ( 'NONE',  ( -3.491481338843133355E-15, 1.229791517316362731E-16, -1.000000000000000000 ) ) ;
#39 = APPROVAL_PERSON_ORGANIZATION ( #79, #111, #155 ) ;
#40 = DESIGN_CONTEXT ( 'detailed design', #31, 'design' ) ;
#41 = VERTEX_POINT ( 'NONE', #110 ) ;
#42 = CARTESIAN_POINT ( 'NONE',  ( 3.367607494212284684E-16, -1.181197703304409263E-17, 0.09645211208054478569 ) ) ;
#43 = ADVANCED_FACE ( 'NONE', ( #176, #213 ), #76, .T. ) ;
#44 = DIRECTION ( 'NONE',  ( 1.000000000000000000, 0.0000000000000000000, 0.0000000000000000000 ) ) ;
#45 =( NAMED_UNIT ( * ) PLANE_ANGLE_UNIT ( ) SI_UNIT ( $, .RADIAN. ) );
#46 = PERSON_AND_ORGANIZATION ( #118, #61 ) ;
#47 = CIRCLE ( 'NONE', #4, 0.2650000000000000133 ) ;
#48 = APPROVAL_PERSON_ORGANIZATION ( #139, #82, #84 ) ;
#49 = PERSON_AND_ORGANIZATION_ROLE ( 'design_supplier' ) ;
#50 = CLOSED_SHELL ( 'NONE', ( #157, #8, #217 ) ) ;
#51 = EDGE_LOOP ( 'NONE', ( #223 ) ) ;
#52 = AXIS2_PLACEMENT_3D ( 'NONE', #55, #127, #190 ) ;
#53 = CC_DESIGN_PERSON_AND_ORGANIZATION_ASSIGNMENT ( #116, #102, ( #11 ) ) ;
#54 = EDGE_LOOP ( 'NONE', ( #122 ) ) ;
#55 = CARTESIAN_POINT ( 'NONE',  ( 0.0000000000000000000, 0.0000000000000000000, 0.0000000000000000000 ) ) ;
#56 = EDGE_CURVE ( 'NONE', #212, #212, #170, .T. ) ;
#57 = DIRECTION ( 'NONE',  ( 0.0000000000000000000, 1.000000000000000000, 0.0000000000000000000 ) ) ;
#58 = VERTEX_POINT ( 'NONE', #37 ) ;
#59 = FACE_BOUND ( 'NONE', #104, .T. ) ;
#60 = ADVANCED_FACE ( 'NONE', ( #134, #161 ), #203, .T. ) ;
#61 = ORGANIZATION ( 'UNSPECIFIED', 'UNSPECIFIED', '' ) ;
#62 = CARTESIAN_POINT ( 'NONE',  ( 1.571166602479410010E-14, 1.124819836996389511E-32, 4.500000000000000000 ) ) ;
#63 = DIRECTION ( 'NONE',  ( 4.275831445896958607E-31, 1.000000000000000000, 1.224646799147353207E-16 ) ) ;
#64 = DATE_TIME_ROLE ( 'creation_date' ) ;
#65 = CARTESIAN_POINT ( 'NONE',  ( 0.0000000000000000000, 0.0000000000000000000, 0.0000000000000000000 ) ) ;
#66 =( GEOMETRIC_REPRESENTATION_CONTEXT ( 3 ) GLOBAL_UNCERTAINTY_ASSIGNED_CONTEXT ( ( #145 ) ) GLOBAL_UNIT_ASSIGNED_CONTEXT ( ( #68, #45, #81 ) ) REPRESENTATION_CONTEXT ( 'NONE', 'WORKASPACE' ) );
#67 = SECURITY_CLASSIFICATION_LEVEL ( 'unclassified' ) ;
#68 =( LENGTH_UNIT ( ) NAMED_UNIT ( * ) SI_UNIT ( .MILLI., .METRE. ) );
#69 = EDGE_LOOP ( 'NONE', ( #126 ) ) ;
#70 = PRODUCT ( '962852', '962852', '', ( #156 ) ) ;
#71 = EDGE_LOOP ( 'NONE', ( #146 ) ) ;
#72 = CC_DESIGN_SECURITY_CLASSIFICATION ( #11, ( #80 ) ) ;
#73 = CARTESIAN_POINT ( 'NONE',  ( 1.906192921252232855E-15, -6.686024735685322183E-17, 0.5459553513993090634 ) ) ;
#74 = DIRECTION ( 'NONE',  ( 3.491481338843133355E-15, -1.229791517316362731E-16, 1.000000000000000000 ) ) ;
#75 = CC_DESIGN_PERSON_AND_ORGANIZATION_ASSIGNMENT ( #182, #27, ( #80 ) ) ;
#76 = CYLINDRICAL_SURFACE ( 'NONE', #137, 1.499999999999997780 ) ;
#77 = PLANE ( 'NONE',  #138 ) ;
#78 = DIRECTION ( 'NONE',  ( -3.491481338843133355E-15, 1.229791517316362731E-16, -1.000000000000000000 ) ) ;
#79 = PERSON_AND_ORGANIZATION ( #118, #61 ) ;
#80 = PRODUCT_DEFINITION_FORMATION_WITH_SPECIFIED_SOURCE ( 'ANY', '', #70, .NOT_KNOWN. ) ;
#81 =( NAMED_UNIT ( * ) SI_UNIT ( $, .STERADIAN. ) SOLID_ANGLE_UNIT ( ) );
#82 = APPROVAL ( #198, 'UNSPECIFIED' ) ;
#83 = COORDINATED_UNIVERSAL_TIME_OFFSET ( 1, 0, .AHEAD. ) ;
#84 = APPROVAL_ROLE ( '' ) ;
#85 = AXIS2_PLACEMENT_3D ( 'NONE', #149, #38, #36 ) ;
#86 = ORIENTED_EDGE ( 'NONE', *, *, #211, .F. ) ;
#87 = ORIENTED_EDGE ( 'NONE', *, *, #165, .F. ) ;
#88 = PRODUCT_DEFINITION ( 'UNKNOWN', '', #80, #40 ) ;
#89 = FACE_OUTER_BOUND ( 'NONE', #35, .T. ) ;
#90 = CARTESIAN_POINT ( 'NONE',  ( 1.316288464743861212E-13, -4.616918432785521081E-15, 37.69999999999999574 ) ) ;
#91 = AXIS2_PLACEMENT_3D ( 'NONE', #191, #19, #131 ) ;
#92 = EDGE_CURVE ( 'NONE', #58, #58, #47, .T. ) ;
#93 = CONICAL_SURFACE ( 'NONE', #220, 1.499999999999995559, 1.221730476396026388 ) ;
#94 = CARTESIAN_POINT ( 'NONE',  ( 1.571166602479410010E-14, 0.2649999999999994582, 4.500000000000000000 ) ) ;
#95 = CC_DESIGN_PERSON_AND_ORGANIZATION_ASSIGNMENT ( #135, #49, ( #80 ) ) ;
#96 = DIRECTION ( 'NONE',  ( -3.491481338843133355E-15, 1.224646799147353207E-16, -1.000000000000000000 ) ) ;
#97 = DIRECTION ( 'NONE',  ( -3.491481338843133355E-15, 1.224646799147353207E-16, -1.000000000000000000 ) ) ;
#98 = CARTESIAN_POINT ( 'NONE',  ( 1.571166602479410010E-14, 1.124819836996389511E-32, 4.500000000000000000 ) ) ;
#99 = APPROVAL_STATUS ( 'not_yet_approved' ) ;
#100 = EDGE_CURVE ( 'NONE', #174, #174, #141, .T. ) ;
#101 = CARTESIAN_POINT ( 'NONE',  ( 1.571166602479410010E-14, 0.2649999999999994582, 4.500000000000000000 ) ) ;
#102 = PERSON_AND_ORGANIZATION_ROLE ( 'classification_officer' ) ;
#103 = APPROVAL_STATUS ( 'not_yet_approved' ) ;
#104 = EDGE_LOOP ( 'NONE', ( #86 ) ) ;
#105 = SHAPE_DEFINITION_REPRESENTATION ( #26, #12 ) ;
#106 = AXIS2_PLACEMENT_3D ( 'NONE', #216, #96, #21 ) ;
#107 = AXIS2_PLACEMENT_3D ( 'NONE', #108, #152, #57 ) ;
#108 = CARTESIAN_POINT ( 'NONE',  ( 1.571166602479410010E-14, -5.534061827923632412E-16, 4.500000000000000000 ) ) ;
#109 = ADVANCED_FACE ( 'NONE', ( #3 ), #215, .F. ) ;
#110 = CARTESIAN_POINT ( 'NONE',  ( 3.180419242634189910E-14, 1.499999999999997113, 9.109082747347546416 ) ) ;
#111 = APPROVAL ( #103, 'UNSPECIFIED' ) ;
#112 = DIRECTION ( 'NONE',  ( -3.491481338843133355E-15, 1.224646799147353207E-16, -1.000000000000000000 ) ) ;
#113 = DIRECTION ( 'NONE',  ( 0.0000000000000000000, -1.000000000000000000, 0.0000000000000000000 ) ) ;
#114 = FACE_OUTER_BOUND ( 'NONE', #71, .T. ) ;
#115 = CIRCLE ( 'NONE', #15, 1.499999999999999778 ) ;
#116 = PERSON_AND_ORGANIZATION ( #118, #61 ) ;
#117 = COORDINATED_UNIVERSAL_TIME_OFFSET ( 1, 0, .AHEAD. ) ;
#118 = PERSON ( 'UNSPECIFIED', 'UNSPECIFIED', 'UNSPECIFIED', ('UNSPECIFIED'), ('UNSPECIFIED'), ('UNSPECIFIED') ) ;
#119 = DIRECTION ( 'NONE',  ( 0.0000000000000000000, 0.0000000000000000000, 1.000000000000000000 ) ) ;
#120 = CALENDAR_DATE ( 2021, 28, 10 ) ;
#121 = PERSON_AND_ORGANIZATION_ROLE ( 'design_owner' ) ;
#122 = ORIENTED_EDGE ( 'NONE', *, *, #56, .T. ) ;
#123 = CIRCLE ( 'NONE', #107, 0.2650000000000000133 ) ;
#124 = EDGE_LOOP ( 'NONE', ( #30 ) ) ;
#125 = LOCAL_TIME ( 11, 22, 25.00000000000000000, #83 ) ;
#126 = ORIENTED_EDGE ( 'NONE', *, *, #211, .T. ) ;
#127 = DIRECTION ( 'NONE',  ( -3.491481338843133355E-15, 1.229791517316362731E-16, -1.000000000000000000 ) ) ;
#128 = MANIFOLD_SOLID_BREP ( 'Corps-Déplacer/Copier1[1]', #154 ) ;
#129 = APPROVAL_PERSON_ORGANIZATION ( #180, #144, #153 ) ;
#130 = DIRECTION ( 'NONE',  ( -3.491481338843133355E-15, 1.224646799147353207E-16, -1.000000000000000000 ) ) ;
#131 = DIRECTION ( 'NONE',  ( 0.0000000000000000000, 1.000000000000000000, 0.0000000000000000000 ) ) ;
#132 = CARTESIAN_POINT ( 'NONE',  ( 0.0000000000000000000, 0.0000000000000000000, 0.0000000000000000000 ) ) ;
#133 = DIRECTION ( 'NONE',  ( 3.491481338843133355E-15, -1.224646799147353207E-16, 1.000000000000000000 ) ) ;
#134 = FACE_OUTER_BOUND ( 'NONE', #210, .T. ) ;
#135 = PERSON_AND_ORGANIZATION ( #118, #61 ) ;
#136 = AXIS2_PLACEMENT_3D ( 'NONE', #197, #74, #113 ) ;
#137 = AXIS2_PLACEMENT_3D ( 'NONE', #132, #130, #6 ) ;
#138 = AXIS2_PLACEMENT_3D ( 'NONE', #98, #164, #196 ) ;
#139 = PERSON_AND_ORGANIZATION ( #118, #61 ) ;
#140 = CALENDAR_DATE ( 2021, 28, 10 ) ;
#141 = CIRCLE ( 'NONE', #85, 0.2650000000000000133 ) ;
#142 = ORIENTED_EDGE ( 'NONE', *, *, #100, .T. ) ;
#143 = EDGE_LOOP ( 'NONE', ( #17 ) ) ;
#144 = APPROVAL ( #99, 'UNSPECIFIED' ) ;
#145 = UNCERTAINTY_MEASURE_WITH_UNIT (LENGTH_MEASURE( 1.000000000000000082E-05 ), #68, 'distance_accuracy_value', 'NONE');
#146 = ORIENTED_EDGE ( 'NONE', *, *, #100, .F. ) ;
#147 = DIRECTION ( 'NONE',  ( -5.135813185032644414E-31, -1.000000000000000000, -1.445602896647343601E-16 ) ) ;
#148 = FACE_OUTER_BOUND ( 'NONE', #207, .T. ) ;
#149 = CARTESIAN_POINT ( 'NONE',  ( 1.571166602479410010E-14, -5.534061827923632412E-16, 4.500000000000000000 ) ) ;
#150 = LOCAL_TIME ( 11, 22, 25.00000000000000000, #117 ) ;
#151 = CARTESIAN_POINT ( 'NONE',  ( 3.180419242634189910E-14, -1.120227269322084059E-15, 9.109082747347546416 ) ) ;
#152 = DIRECTION ( 'NONE',  ( -3.491481338843133355E-15, 1.229791517316362731E-16, -1.000000000000000000 ) ) ;
#153 = APPROVAL_ROLE ( '' ) ;
#154 = CLOSED_SHELL ( 'NONE', ( #43, #60, #109, #28, #184 ) ) ;
#155 = APPROVAL_ROLE ( '' ) ;
#156 = MECHANICAL_CONTEXT ( 'NONE', #18, 'mechanical' ) ;
#157 = ADVANCED_FACE ( 'NONE', ( #114 ), #20, .T. ) ;
#158 = EDGE_LOOP ( 'NONE', ( #16 ) ) ;
#159 = FACE_OUTER_BOUND ( 'NONE', #158, .T. ) ;
#160 = DIRECTION ( 'NONE',  ( -4.275831445896958607E-31, -1.000000000000000000, -1.224646799147353207E-16 ) ) ;
#161 = FACE_BOUND ( 'NONE', #54, .T. ) ;
#162 = FACE_OUTER_BOUND ( 'NONE', #69, .T. ) ;
#163 = AXIS2_PLACEMENT_3D ( 'NONE', #151, #78, #172 ) ;
#164 = DIRECTION ( 'NONE',  ( 3.491481338843133355E-15, -1.224646799147353207E-16, 1.000000000000000000 ) ) ;
#165 = EDGE_CURVE ( 'NONE', #1, #1, #115, .T. ) ;
#166 = APPLICATION_PROTOCOL_DEFINITION ( 'international standard', 'config_control_design', 1994, #31 ) ;
#167 = LOCAL_TIME ( 11, 22, 25.00000000000000000, #7 ) ;
#168 = VERTEX_POINT ( 'NONE', #101 ) ;
#169 = DATE_AND_TIME ( #29, #125 ) ;
#170 = CIRCLE ( 'NONE', #91, 1.199999999999999956 ) ;
#171 = LOCAL_TIME ( 11, 22, 25.00000000000000000, #183 ) ;
#172 = DIRECTION ( 'NONE',  ( 0.0000000000000000000, 1.000000000000000000, 0.0000000000000000000 ) ) ;
#173 = CIRCLE ( 'NONE', #163, 1.499999999999998224 ) ;
#174 = VERTEX_POINT ( 'NONE', #94 ) ;
#175 = CC_DESIGN_APPROVAL ( #82, ( #88 ) ) ;
#176 = FACE_OUTER_BOUND ( 'NONE', #186, .T. ) ;
#177 = CARTESIAN_POINT ( 'NONE',  ( 1.326762908760390423E-13, 1.199999999999995293, 38.00000000000000000 ) ) ;
#178 = CARTESIAN_POINT ( 'NONE',  ( 1.326762908760390423E-13, 8.998558695971077224E-33, 38.00000000000000000 ) ) ;
#179 = CC_DESIGN_DATE_AND_TIME_ASSIGNMENT ( #9, #64, ( #88 ) ) ;
#180 = PERSON_AND_ORGANIZATION ( #118, #61 ) ;
#181 = APPLICATION_PROTOCOL_DEFINITION ( 'international standard', 'config_control_design', 1994, #18 ) ;
#182 = PERSON_AND_ORGANIZATION ( #118, #61 ) ;
#183 = COORDINATED_UNIVERSAL_TIME_OFFSET ( 1, 0, .AHEAD. ) ;
#184 = ADVANCED_FACE ( 'NONE', ( #162 ), #77, .F. ) ;
#185 = DATE_AND_TIME ( #201, #150 ) ;
#186 = EDGE_LOOP ( 'NONE', ( #208 ) ) ;
#187 = AXIS2_PLACEMENT_3D ( 'NONE', #65, #119, #44 ) ;
#188 = CALENDAR_DATE ( 2021, 28, 10 ) ;
#189 = FACE_OUTER_BOUND ( 'NONE', #51, .T. ) ;
#190 = DIRECTION ( 'NONE',  ( 4.293794133377661370E-31, 1.000000000000000000, 1.229791517316362731E-16 ) ) ;
#191 = CARTESIAN_POINT ( 'NONE',  ( 1.326762908760390423E-13, -4.653657836759941941E-15, 38.00000000000000000 ) ) ;
#192 = MANIFOLD_SOLID_BREP ( 'Corps-Déplacer/Copier1[2]', #50 ) ;
#193 = DIRECTION ( 'NONE',  ( 3.491481338843133355E-15, -1.224646799147353207E-16, 1.000000000000000000 ) ) ;
#194 = DIRECTION ( 'NONE',  ( -3.633830083749501254E-31, -1.000000000000000000, -1.022832238193872008E-16 ) ) ;
#195 = LOCAL_TIME ( 11, 22, 25.00000000000000000, #219 ) ;
#196 = DIRECTION ( 'NONE',  ( -4.275831445896958607E-31, -1.000000000000000000, -1.224646799147353207E-16 ) ) ;
#197 = CARTESIAN_POINT ( 'NONE',  ( 3.180419242634189910E-14, -1.120227269322084059E-15, 9.109082747347546416 ) ) ;
#198 = APPROVAL_STATUS ( 'not_yet_approved' ) ;
#199 = AXIS2_PLACEMENT_3D ( 'NONE', #62, #133, #160 ) ;
#200 = DATE_AND_TIME ( #120, #171 ) ;
#201 = CALENDAR_DATE ( 2021, 28, 10 ) ;
#202 = PERSON_AND_ORGANIZATION_ROLE ( 'creator' ) ;
#203 = CONICAL_SURFACE ( 'NONE', #106, 1.199999999999999956, 0.7853981633974453924 ) ;
#204 = CC_DESIGN_APPROVAL ( #111, ( #80 ) ) ;
#205 = PERSON_AND_ORGANIZATION ( #118, #61 ) ;
#206 = CONICAL_SURFACE ( 'NONE', #136, 1.499999999999998224, 0.2617993877991500740 ) ;
#207 = EDGE_LOOP ( 'NONE', ( #32 ) ) ;
#208 = ORIENTED_EDGE ( 'NONE', *, *, #24, .F. ) ;
#209 = AXIS2_PLACEMENT_3D ( 'NONE', #178, #97, #63 ) ;
#210 = EDGE_LOOP ( 'NONE', ( #87 ) ) ;
#211 = EDGE_CURVE ( 'NONE', #168, #168, #123, .T. ) ;
#212 = VERTEX_POINT ( 'NONE', #177 ) ;
#213 = FACE_OUTER_BOUND ( 'NONE', #124, .T. ) ;
#214 = CC_DESIGN_PERSON_AND_ORGANIZATION_ASSIGNMENT ( #205, #121, ( #70 ) ) ;
#215 = PLANE ( 'NONE',  #209 ) ;
#216 = CARTESIAN_POINT ( 'NONE',  ( 1.326762908760390423E-13, -4.653657836759941941E-15, 38.00000000000000000 ) ) ;
#217 = ADVANCED_FACE ( 'NONE', ( #159 ), #93, .T. ) ;
#218 = APPROVAL_DATE_TIME ( #200, #111 ) ;
#219 = COORDINATED_UNIVERSAL_TIME_OFFSET ( 1, 0, .AHEAD. ) ;
#220 = AXIS2_PLACEMENT_3D ( 'NONE', #73, #193, #147 ) ;
#221 = APPROVAL_DATE_TIME ( #222, #144 ) ;
#222 = DATE_AND_TIME ( #188, #195 ) ;
#223 = ORIENTED_EDGE ( 'NONE', *, *, #92, .F. ) ;
ENDSEC;
END-ISO-10303-21;
