ISO-10303-21;
HEADER;
FILE_DESCRIPTION (( 'STEP AP203' ),
    '1' );
FILE_NAME ('962851.step',
    '2021-10-28T09:22:24',
    ( '' ),
    ( '' ),
    'SwSTEP 2.0',
    'SolidWorks 2019',
    '' );
FILE_SCHEMA (( 'CONFIG_CONTROL_DESIGN' ));
ENDSEC;

DATA;
#1 = EDGE_LOOP ( 'NONE', ( #50 ) ) ;
#2 = FACE_OUTER_BOUND ( 'NONE', #68, .T. ) ;
#3 = ADVANCED_FACE ( 'NONE', ( #124 ), #195, .T. ) ;
#4 = CLOSED_SHELL ( 'NONE', ( #3, #18, #101 ) ) ;
#5 = CIRCLE ( 'NONE', #133, 1.499999999999999778 ) ;
#6 = APPLICATION_CONTEXT ( 'configuration controlled 3d designs of mechanical parts and assemblies' ) ;
#7 = CC_DESIGN_PERSON_AND_ORGANIZATION_ASSIGNMENT ( #45, #82, ( #30 ) ) ;
#8 = DIRECTION ( 'NONE',  ( 0.0000000000000000000, 1.000000000000000000, 0.0000000000000000000 ) ) ;
#9 = VERTEX_POINT ( 'NONE', #148 ) ;
#10 = VERTEX_POINT ( 'NONE', #215 ) ;
#11 = DATE_AND_TIME ( #170, #59 ) ;
#12 = AXIS2_PLACEMENT_3D ( 'NONE', #146, #149, #107 ) ;
#13 = DATE_AND_TIME ( #152, #81 ) ;
#14 = CLOSED_SHELL ( 'NONE', ( #182, #24, #206, #49, #51 ) ) ;
#15 = CIRCLE ( 'NONE', #117, 1.199999999999999956 ) ;
#16 = EDGE_LOOP ( 'NONE', ( #53 ) ) ;
#17 = FACE_BOUND ( 'NONE', #141, .T. ) ;
#18 = ADVANCED_FACE ( 'NONE', ( #176, #104 ), #75, .T. ) ;
#19 = PRODUCT ( '962851', '962851', '', ( #94 ) ) ;
#20 = DIRECTION ( 'NONE',  ( -3.491481338843133355E-15, 1.229791517316362731E-16, -1.000000000000000000 ) ) ;
#21 = AXIS2_PLACEMENT_3D ( 'NONE', #25, #55, #180 ) ;
#22 = CARTESIAN_POINT ( 'NONE',  ( 1.316288464743861212E-13, -4.616918432785521081E-15, 37.69999999999999574 ) ) ;
#23 = FACE_OUTER_BOUND ( 'NONE', #123, .T. ) ;
#24 = ADVANCED_FACE ( 'NONE', ( #23, #60 ), #210, .T. ) ;
#25 = CARTESIAN_POINT ( 'NONE',  ( 1.326762908760390423E-13, -4.653657836759941941E-15, 38.00000000000000000 ) ) ;
#26 = DIRECTION ( 'NONE',  ( 1.000000000000000000, 0.0000000000000000000, 0.0000000000000000000 ) ) ;
#27 = COORDINATED_UNIVERSAL_TIME_OFFSET ( 1, 0, .AHEAD. ) ;
#28 = CC_DESIGN_DATE_AND_TIME_ASSIGNMENT ( #139, #83, ( #89 ) ) ;
#29 =( NAMED_UNIT ( * ) SI_UNIT ( $, .STERADIAN. ) SOLID_ANGLE_UNIT ( ) );
#30 = PRODUCT_DEFINITION_FORMATION_WITH_SPECIFIED_SOURCE ( 'ANY', '', #19, .NOT_KNOWN. ) ;
#31 = DIRECTION ( 'NONE',  ( -4.275831445896958607E-31, -1.000000000000000000, -1.224646799147353207E-16 ) ) ;
#32 = DIRECTION ( 'NONE',  ( 3.491481338843133355E-15, -1.224646799147353207E-16, 1.000000000000000000 ) ) ;
#33 = CIRCLE ( 'NONE', #97, 0.2500000000000000000 ) ;
#34 = EDGE_CURVE ( 'NONE', #36, #36, #33, .T. ) ;
#35 = DIRECTION ( 'NONE',  ( -3.491481338843133355E-15, 1.224646799147353207E-16, -1.000000000000000000 ) ) ;
#36 = VERTEX_POINT ( 'NONE', #93 ) ;
#37 = CIRCLE ( 'NONE', #223, 1.499999999999998446 ) ;
#38 = CIRCLE ( 'NONE', #204, 0.2500000000000000000 ) ;
#39 = CARTESIAN_POINT ( 'NONE',  ( 1.326762908760390423E-13, -4.653657836759941941E-15, 38.00000000000000000 ) ) ;
#40 = CARTESIAN_POINT ( 'NONE',  ( 1.316288464743861212E-13, 1.499999999999995337, 37.69999999999999574 ) ) ;
#41 = PERSON ( 'UNSPECIFIED', 'UNSPECIFIED', 'UNSPECIFIED', ('UNSPECIFIED'), ('UNSPECIFIED'), ('UNSPECIFIED') ) ;
#42 = DIRECTION ( 'NONE',  ( 4.293794133377662246E-31, 1.000000000000000000, 1.229791517316362977E-16 ) ) ;
#43 = AXIS2_PLACEMENT_3D ( 'NONE', #196, #183, #87 ) ;
#44 = CC_DESIGN_PERSON_AND_ORGANIZATION_ASSIGNMENT ( #96, #166, ( #30 ) ) ;
#45 = PERSON_AND_ORGANIZATION ( #41, #118 ) ;
#46 = AXIS2_PLACEMENT_3D ( 'NONE', #181, #35, #127 ) ;
#47 = APPROVAL_ROLE ( '' ) ;
#48 = AXIS2_PLACEMENT_3D ( 'NONE', #161, #162, #56 ) ;
#49 = ADVANCED_FACE ( 'NONE', ( #17, #77 ), #172, .T. ) ;
#50 = ORIENTED_EDGE ( 'NONE', *, *, #212, .T. ) ;
#51 = ADVANCED_FACE ( 'NONE', ( #126 ), #198, .F. ) ;
#52 = ORIENTED_EDGE ( 'NONE', *, *, #90, .T. ) ;
#53 = ORIENTED_EDGE ( 'NONE', *, *, #34, .T. ) ;
#54 = ORIENTED_EDGE ( 'NONE', *, *, #147, .T. ) ;
#55 = DIRECTION ( 'NONE',  ( -3.491481338843133355E-15, 1.224646799147353207E-16, -1.000000000000000000 ) ) ;
#56 = DIRECTION ( 'NONE',  ( 4.275831445896959482E-31, 1.000000000000000000, 1.224646799147353207E-16 ) ) ;
#57 = DIRECTION ( 'NONE',  ( -3.491481338843133355E-15, 1.224646799147353207E-16, -1.000000000000000000 ) ) ;
#58 = AXIS2_PLACEMENT_3D ( 'NONE', #78, #20, #159 ) ;
#59 = LOCAL_TIME ( 11, 22, 24.00000000000000000, #185 ) ;
#60 = FACE_BOUND ( 'NONE', #86, .T. ) ;
#61 = DIRECTION ( 'NONE',  ( 0.0000000000000000000, 1.000000000000000000, 0.0000000000000000000 ) ) ;
#62 = APPROVAL_DATE_TIME ( #11, #85 ) ;
#63 = APPLICATION_PROTOCOL_DEFINITION ( 'international standard', 'config_control_design', 1994, #72 ) ;
#64 = PERSON_AND_ORGANIZATION ( #41, #118 ) ;
#65 = APPROVAL_ROLE ( '' ) ;
#66 = ORIENTED_EDGE ( 'NONE', *, *, #90, .F. ) ;
#67 = CC_DESIGN_PERSON_AND_ORGANIZATION_ASSIGNMENT ( #64, #136, ( #89 ) ) ;
#68 = EDGE_LOOP ( 'NONE', ( #142 ) ) ;
#69 = ORIENTED_EDGE ( 'NONE', *, *, #34, .F. ) ;
#70 = AXIS2_PLACEMENT_3D ( 'NONE', #216, #178, #42 ) ;
#71 = VERTEX_POINT ( 'NONE', #108 ) ;
#72 = APPLICATION_CONTEXT ( 'configuration controlled 3d designs of mechanical parts and assemblies' ) ;
#73 = DIRECTION ( 'NONE',  ( -3.491481338843133355E-15, 1.224646799147353207E-16, -1.000000000000000000 ) ) ;
#74 = UNCERTAINTY_MEASURE_WITH_UNIT (LENGTH_MEASURE( 1.000000000000000082E-05 ), #150, 'distance_accuracy_value', 'NONE');
#75 = CYLINDRICAL_SURFACE ( 'NONE', #70, 0.2500000000000000000 ) ;
#76 = CC_DESIGN_PERSON_AND_ORGANIZATION_ASSIGNMENT ( #116, #221, ( #120 ) ) ;
#77 = FACE_OUTER_BOUND ( 'NONE', #125, .T. ) ;
#78 = CARTESIAN_POINT ( 'NONE',  ( 1.396592535537253342E-14, -4.919166069265451909E-16, 4.000000000000000000 ) ) ;
#79 = CARTESIAN_POINT ( 'NONE',  ( 0.0000000000000000000, 0.0000000000000000000, 0.0000000000000000000 ) ) ;
#80 = APPROVAL_STATUS ( 'not_yet_approved' ) ;
#81 = LOCAL_TIME ( 11, 22, 24.00000000000000000, #27 ) ;
#82 = PERSON_AND_ORGANIZATION_ROLE ( 'design_supplier' ) ;
#83 = DATE_TIME_ROLE ( 'classification_date' ) ;
#84 = EDGE_CURVE ( 'NONE', #71, #71, #109, .T. ) ;
#85 = APPROVAL ( #80, 'UNSPECIFIED' ) ;
#86 = EDGE_LOOP ( 'NONE', ( #209 ) ) ;
#87 = DIRECTION ( 'NONE',  ( -5.135813185032644414E-31, -1.000000000000000000, -1.445602896647343601E-16 ) ) ;
#88 = CARTESIAN_POINT ( 'NONE',  ( 1.396592535537253342E-14, 1.124819836996389648E-32, 4.000000000000000000 ) ) ;
#89 = SECURITY_CLASSIFICATION ( '', '', #222 ) ;
#90 = EDGE_CURVE ( 'NONE', #9, #9, #37, .T. ) ;
#91 = CARTESIAN_POINT ( 'NONE',  ( 3.176988202087059525E-16, -1.114337455947554981E-17, 0.09099255856655165398 ) ) ;
#92 = DIRECTION ( 'NONE',  ( -4.275831445896958607E-31, -1.000000000000000000, -1.224646799147353207E-16 ) ) ;
#93 = CARTESIAN_POINT ( 'NONE',  ( 3.176988202087058539E-16, -0.2500000000000000000, 0.09099255856655162622 ) ) ;
#94 = MECHANICAL_CONTEXT ( 'NONE', #72, 'mechanical' ) ;
#95 = DIRECTION ( 'NONE',  ( 0.0000000000000000000, 0.0000000000000000000, 1.000000000000000000 ) ) ;
#96 = PERSON_AND_ORGANIZATION ( #41, #118 ) ;
#97 = AXIS2_PLACEMENT_3D ( 'NONE', #91, #57, #128 ) ;
#98 = APPROVAL_PERSON_ORGANIZATION ( #132, #177, #186 ) ;
#99 = CARTESIAN_POINT ( 'NONE',  ( 1.396592535537253342E-14, 0.2499999999999995282, 4.000000000000000000 ) ) ;
#100 = PERSON_AND_ORGANIZATION ( #41, #118 ) ;
#101 = ADVANCED_FACE ( 'NONE', ( #197 ), #188, .T. ) ;
#102 = AXIS2_PLACEMENT_3D ( 'NONE', #88, #130, #92 ) ;
#103 = CC_DESIGN_DATE_AND_TIME_ASSIGNMENT ( #164, #203, ( #120 ) ) ;
#104 = FACE_OUTER_BOUND ( 'NONE', #213, .T. ) ;
#105 = APPROVAL_DATE_TIME ( #190, #137 ) ;
#106 = ORIENTED_EDGE ( 'NONE', *, *, #212, .F. ) ;
#107 = DIRECTION ( 'NONE',  ( 0.0000000000000000000, -1.000000000000000000, 0.0000000000000000000 ) ) ;
#108 = CARTESIAN_POINT ( 'NONE',  ( 1.396592535537253342E-14, 0.2499999999999995282, 4.000000000000000000 ) ) ;
#109 = CIRCLE ( 'NONE', #58, 0.2500000000000000000 ) ;
#110 = CC_DESIGN_APPROVAL ( #177, ( #120 ) ) ;
#111 = PLANE ( 'NONE',  #46 ) ;
#112 = CARTESIAN_POINT ( 'NONE',  ( 3.025390754317394461E-14, -1.065622160094278693E-15, 8.665063509461077729 ) ) ;
#113 = PERSON_AND_ORGANIZATION_ROLE ( 'design_owner' ) ;
#114 = CC_DESIGN_APPROVAL ( #85, ( #30 ) ) ;
#115 = APPROVAL_DATE_TIME ( #13, #177 ) ;
#116 = PERSON_AND_ORGANIZATION ( #41, #118 ) ;
#117 = AXIS2_PLACEMENT_3D ( 'NONE', #39, #73, #61 ) ;
#118 = ORGANIZATION ( 'UNSPECIFIED', 'UNSPECIFIED', '' ) ;
#119 = COORDINATED_UNIVERSAL_TIME_OFFSET ( 1, 0, .AHEAD. ) ;
#120 = PRODUCT_DEFINITION ( 'UNKNOWN', '', #30, #220 ) ;
#121 = ORIENTED_EDGE ( 'NONE', *, *, #84, .T. ) ;
#122 = SHAPE_DEFINITION_REPRESENTATION ( #160, #168 ) ;
#123 = EDGE_LOOP ( 'NONE', ( #211 ) ) ;
#124 = FACE_OUTER_BOUND ( 'NONE', #140, .T. ) ;
#125 = EDGE_LOOP ( 'NONE', ( #52 ) ) ;
#126 = FACE_OUTER_BOUND ( 'NONE', #191, .T. ) ;
#127 = DIRECTION ( 'NONE',  ( 4.275831445896958607E-31, 1.000000000000000000, 1.224646799147353207E-16 ) ) ;
#128 = DIRECTION ( 'NONE',  ( -3.851859888774471706E-31, -1.000000000000000000, -1.084202172485504434E-16 ) ) ;
#129 = LOCAL_TIME ( 11, 22, 24.00000000000000000, #187 ) ;
#130 = DIRECTION ( 'NONE',  ( 3.491481338843133355E-15, -1.224646799147353207E-16, 1.000000000000000000 ) ) ;
#131 = CARTESIAN_POINT ( 'NONE',  ( 1.396592535537253342E-14, -4.919166069265451909E-16, 4.000000000000000000 ) ) ;
#132 = PERSON_AND_ORGANIZATION ( #41, #118 ) ;
#133 = AXIS2_PLACEMENT_3D ( 'NONE', #22, #218, #200 ) ;
#134 = VERTEX_POINT ( 'NONE', #99 ) ;
#135 = CALENDAR_DATE ( 2021, 28, 10 ) ;
#136 = PERSON_AND_ORGANIZATION_ROLE ( 'classification_officer' ) ;
#137 = APPROVAL ( #151, 'UNSPECIFIED' ) ;
#138 = PRODUCT_RELATED_PRODUCT_CATEGORY ( 'detail', '', ( #19 ) ) ;
#139 = DATE_AND_TIME ( #184, #158 ) ;
#140 = EDGE_LOOP ( 'NONE', ( #106 ) ) ;
#141 = EDGE_LOOP ( 'NONE', ( #174 ) ) ;
#142 = ORIENTED_EDGE ( 'NONE', *, *, #157, .F. ) ;
#143 = EDGE_LOOP ( 'NONE', ( #66 ) ) ;
#144 = CYLINDRICAL_SURFACE ( 'NONE', #48, 1.499999999999997780 ) ;
#145 = FACE_OUTER_BOUND ( 'NONE', #194, .T. ) ;
#146 = CARTESIAN_POINT ( 'NONE',  ( 3.025390754317394461E-14, -1.065622160094278693E-15, 8.665063509461077729 ) ) ;
#147 = EDGE_CURVE ( 'NONE', #199, #199, #5, .T. ) ;
#148 = CARTESIAN_POINT ( 'NONE',  ( 3.025390754317394461E-14, 1.499999999999997335, 8.665063509461077729 ) ) ;
#149 = DIRECTION ( 'NONE',  ( 3.491481338843133355E-15, -1.229791517316362731E-16, 1.000000000000000000 ) ) ;
#150 =( LENGTH_UNIT ( ) NAMED_UNIT ( * ) SI_UNIT ( .MILLI., .METRE. ) );
#151 = APPROVAL_STATUS ( 'not_yet_approved' ) ;
#152 = CALENDAR_DATE ( 2021, 28, 10 ) ;
#153 = PERSON_AND_ORGANIZATION ( #41, #118 ) ;
#154 = APPROVAL_PERSON_ORGANIZATION ( #153, #137, #65 ) ;
#155 = APPROVAL_PERSON_ORGANIZATION ( #100, #85, #47 ) ;
#156 = FACE_OUTER_BOUND ( 'NONE', #143, .T. ) ;
#157 = EDGE_CURVE ( 'NONE', #10, #10, #15, .T. ) ;
#158 = LOCAL_TIME ( 11, 22, 24.00000000000000000, #119 ) ;
#159 = DIRECTION ( 'NONE',  ( 0.0000000000000000000, 1.000000000000000000, 0.0000000000000000000 ) ) ;
#160 = PRODUCT_DEFINITION_SHAPE ( 'NONE', 'NONE',  #120 ) ;
#161 = CARTESIAN_POINT ( 'NONE',  ( 0.0000000000000000000, 0.0000000000000000000, 0.0000000000000000000 ) ) ;
#162 = DIRECTION ( 'NONE',  ( -3.491481338843133355E-15, 1.224646799147353207E-16, -1.000000000000000000 ) ) ;
#163 = DIRECTION ( 'NONE',  ( 0.0000000000000000000, 1.000000000000000000, 0.0000000000000000000 ) ) ;
#164 = DATE_AND_TIME ( #135, #129 ) ;
#165 = APPLICATION_PROTOCOL_DEFINITION ( 'international standard', 'config_control_design', 1994, #6 ) ;
#166 = PERSON_AND_ORGANIZATION_ROLE ( 'creator' ) ;
#167 =( GEOMETRIC_REPRESENTATION_CONTEXT ( 3 ) GLOBAL_UNCERTAINTY_ASSIGNED_CONTEXT ( ( #74 ) ) GLOBAL_UNIT_ASSIGNED_CONTEXT ( ( #150, #169, #29 ) ) REPRESENTATION_CONTEXT ( 'NONE', 'WORKASPACE' ) );
#168 = ADVANCED_BREP_SHAPE_REPRESENTATION ( '962851', ( #171, #173, #214 ), #167 ) ;
#169 =( NAMED_UNIT ( * ) PLANE_ANGLE_UNIT ( ) SI_UNIT ( $, .RADIAN. ) );
#170 = CALENDAR_DATE ( 2021, 28, 10 ) ;
#171 = MANIFOLD_SOLID_BREP ( 'Corps-Déplacer/Copier1[1]', #14 ) ;
#172 = CONICAL_SURFACE ( 'NONE', #12, 1.499999999999998446, 0.2617993877991501295 ) ;
#173 = MANIFOLD_SOLID_BREP ( 'Corps-Déplacer/Copier1[2]', #4 ) ;
#174 = ORIENTED_EDGE ( 'NONE', *, *, #84, .F. ) ;
#175 = CC_DESIGN_APPROVAL ( #137, ( #89 ) ) ;
#176 = FACE_OUTER_BOUND ( 'NONE', #1, .T. ) ;
#177 = APPROVAL ( #201, 'UNSPECIFIED' ) ;
#178 = DIRECTION ( 'NONE',  ( -3.491481338843133355E-15, 1.229791517316362731E-16, -1.000000000000000000 ) ) ;
#179 = DIRECTION ( 'NONE',  ( -3.491481338843133355E-15, 1.229791517316362731E-16, -1.000000000000000000 ) ) ;
#180 = DIRECTION ( 'NONE',  ( 0.0000000000000000000, 1.000000000000000000, 0.0000000000000000000 ) ) ;
#181 = CARTESIAN_POINT ( 'NONE',  ( 1.326762908760390423E-13, 8.998558695971077224E-33, 38.00000000000000000 ) ) ;
#182 = ADVANCED_FACE ( 'NONE', ( #156, #145 ), #144, .T. ) ;
#183 = DIRECTION ( 'NONE',  ( 3.491481338843133355E-15, -1.224646799147353207E-16, 1.000000000000000000 ) ) ;
#184 = CALENDAR_DATE ( 2021, 28, 10 ) ;
#185 = COORDINATED_UNIVERSAL_TIME_OFFSET ( 1, 0, .AHEAD. ) ;
#186 = APPROVAL_ROLE ( '' ) ;
#187 = COORDINATED_UNIVERSAL_TIME_OFFSET ( 1, 0, .AHEAD. ) ;
#188 = CONICAL_SURFACE ( 'NONE', #43, 1.499999999999995559, 1.221730476396026388 ) ;
#189 = LOCAL_TIME ( 11, 22, 24.00000000000000000, #205 ) ;
#190 = DATE_AND_TIME ( #193, #189 ) ;
#191 = EDGE_LOOP ( 'NONE', ( #121 ) ) ;
#192 = CARTESIAN_POINT ( 'NONE',  ( 1.396592535537253342E-14, 1.124819836996389648E-32, 4.000000000000000000 ) ) ;
#193 = CALENDAR_DATE ( 2021, 28, 10 ) ;
#194 = EDGE_LOOP ( 'NONE', ( #54 ) ) ;
#195 = PLANE ( 'NONE',  #208 ) ;
#196 = CARTESIAN_POINT ( 'NONE',  ( 1.906192921252232855E-15, -6.686024735685322183E-17, 0.5459553513993090634 ) ) ;
#197 = FACE_OUTER_BOUND ( 'NONE', #16, .T. ) ;
#198 = PLANE ( 'NONE',  #102 ) ;
#199 = VERTEX_POINT ( 'NONE', #40 ) ;
#200 = DIRECTION ( 'NONE',  ( 0.0000000000000000000, 1.000000000000000000, 0.0000000000000000000 ) ) ;
#201 = APPROVAL_STATUS ( 'not_yet_approved' ) ;
#202 = CC_DESIGN_SECURITY_CLASSIFICATION ( #89, ( #30 ) ) ;
#203 = DATE_TIME_ROLE ( 'creation_date' ) ;
#204 = AXIS2_PLACEMENT_3D ( 'NONE', #131, #217, #8 ) ;
#205 = COORDINATED_UNIVERSAL_TIME_OFFSET ( 1, 0, .AHEAD. ) ;
#206 = ADVANCED_FACE ( 'NONE', ( #2 ), #111, .F. ) ;
#207 = CC_DESIGN_PERSON_AND_ORGANIZATION_ASSIGNMENT ( #219, #113, ( #19 ) ) ;
#208 = AXIS2_PLACEMENT_3D ( 'NONE', #192, #32, #31 ) ;
#209 = ORIENTED_EDGE ( 'NONE', *, *, #157, .T. ) ;
#210 = CONICAL_SURFACE ( 'NONE', #21, 1.199999999999999956, 0.7853981633974453924 ) ;
#211 = ORIENTED_EDGE ( 'NONE', *, *, #147, .F. ) ;
#212 = EDGE_CURVE ( 'NONE', #134, #134, #38, .T. ) ;
#213 = EDGE_LOOP ( 'NONE', ( #69 ) ) ;
#214 = AXIS2_PLACEMENT_3D ( 'NONE', #79, #95, #26 ) ;
#215 = CARTESIAN_POINT ( 'NONE',  ( 1.326762908760390423E-13, 1.199999999999995293, 38.00000000000000000 ) ) ;
#216 = CARTESIAN_POINT ( 'NONE',  ( 0.0000000000000000000, 0.0000000000000000000, 0.0000000000000000000 ) ) ;
#217 = DIRECTION ( 'NONE',  ( -3.491481338843133355E-15, 1.229791517316362731E-16, -1.000000000000000000 ) ) ;
#218 = DIRECTION ( 'NONE',  ( -3.491481338843133355E-15, 1.224646799147353207E-16, -1.000000000000000000 ) ) ;
#219 = PERSON_AND_ORGANIZATION ( #41, #118 ) ;
#220 = DESIGN_CONTEXT ( 'detailed design', #6, 'design' ) ;
#221 = PERSON_AND_ORGANIZATION_ROLE ( 'creator' ) ;
#222 = SECURITY_CLASSIFICATION_LEVEL ( 'unclassified' ) ;
#223 = AXIS2_PLACEMENT_3D ( 'NONE', #112, #179, #163 ) ;
ENDSEC;
END-ISO-10303-21;
