ISO-10303-21;
HEADER;
FILE_DESCRIPTION (( 'STEP AP203' ),
    '1' );
FILE_NAME ('962850.step',
    '2021-10-28T09:22:23',
    ( '' ),
    ( '' ),
    'SwSTEP 2.0',
    'SolidWorks 2019',
    '' );
FILE_SCHEMA (( 'CONFIG_CONTROL_DESIGN' ));
ENDSEC;

DATA;
#1 = DIRECTION ( 'NONE',  ( 1.000000000000000000, 0.0000000000000000000, 0.0000000000000000000 ) ) ;
#2 = DIRECTION ( 'NONE',  ( -1.000000000000000000, 0.0000000000000000000, 4.625929269271493211E-15 ) ) ;
#3 = DIRECTION ( 'NONE',  ( -3.491481338843133355E-15, 1.224646799147353207E-16, -1.000000000000000000 ) ) ;
#4 = APPROVAL ( #44, 'UNSPECIFIED' ) ;
#5 = AXIS2_PLACEMENT_3D ( 'NONE', #113, #31, #89 ) ;
#6 = CALENDAR_DATE ( 2021, 28, 10 ) ;
#7 = EDGE_LOOP ( 'NONE', ( #218 ) ) ;
#8 = APPROVAL_DATE_TIME ( #248, #87 ) ;
#9 = APPROVAL_DATE_TIME ( #126, #4 ) ;
#10 = LOCAL_TIME ( 11, 22, 23.00000000000000000, #189 ) ;
#11 = AXIS2_PLACEMENT_3D ( 'NONE', #172, #74, #157 ) ;
#12 = DIRECTION ( 'NONE',  ( -5.135813185032644414E-31, -1.000000000000000000, -1.445602896647343601E-16 ) ) ;
#13 = DIRECTION ( 'NONE',  ( -3.491481338843133355E-15, 0.0000000000000000000, -1.000000000000000000 ) ) ;
#14 = CARTESIAN_POINT ( 'NONE',  ( 1.941028533871207902E-14, 0.0000000000000000000, 5.559326673973711941 ) ) ;
#15 = ORIENTED_EDGE ( 'NONE', *, *, #197, .T. ) ;
#16 = AXIS2_PLACEMENT_3D ( 'NONE', #151, #131, #12 ) ;
#17 = VERTEX_POINT ( 'NONE', #246 ) ;
#18 = SECURITY_CLASSIFICATION ( '', '', #22 ) ;
#19 = PERSON_AND_ORGANIZATION_ROLE ( 'design_supplier' ) ;
#20 = EDGE_CURVE ( 'NONE', #161, #161, #25, .T. ) ;
#21 = EDGE_LOOP ( 'NONE', ( #86 ) ) ;
#22 = SECURITY_CLASSIFICATION_LEVEL ( 'unclassified' ) ;
#23 = EDGE_LOOP ( 'NONE', ( #230 ) ) ;
#24 = DATE_AND_TIME ( #66, #84 ) ;
#25 = CIRCLE ( 'NONE', #119, 0.2249999999999995615 ) ;
#26 = PERSON_AND_ORGANIZATION_ROLE ( 'creator' ) ;
#27 = CONICAL_SURFACE ( 'NONE', #90, 1.499999999999997335, 0.5235987755982930425 ) ;
#28 = CIRCLE ( 'NONE', #5, 1.499999999999997335 ) ;
#29 = AXIS2_PLACEMENT_3D ( 'NONE', #14, #71, #112 ) ;
#30 = EDGE_LOOP ( 'NONE', ( #63 ) ) ;
#31 = DIRECTION ( 'NONE',  ( -3.491481338843133355E-15, 0.0000000000000000000, -1.000000000000000000 ) ) ;
#32 = DIRECTION ( 'NONE',  ( -3.491481338843133355E-15, 1.224646799147353207E-16, -1.000000000000000000 ) ) ;
#33 = DIRECTION ( 'NONE',  ( -1.000000000000000000, 0.0000000000000000000, 3.854941057726245789E-15 ) ) ;
#34 = ADVANCED_FACE ( 'NONE', ( #256 ), #53, .T. ) ;
#35 = DIRECTION ( 'NONE',  ( 3.491481338843133355E-15, -1.224646799147353207E-16, 1.000000000000000000 ) ) ;
#36 = PRODUCT_DEFINITION_SHAPE ( 'NONE', 'NONE',  #134 ) ;
#37 = PERSON_AND_ORGANIZATION ( #221, #56 ) ;
#38 = VERTEX_POINT ( 'NONE', #158 ) ;
#39 = CIRCLE ( 'NONE', #98, 0.7499999999999987788 ) ;
#40 = CARTESIAN_POINT ( 'NONE',  ( 3.578432528706227793E-14, 0.0000000000000000000, 10.24903810567667328 ) ) ;
#41 = APPROVAL_PERSON_ORGANIZATION ( #62, #162, #202 ) ;
#42 = CARTESIAN_POINT ( 'NONE',  ( 1.326762908760390423E-13, 1.199999999999995293, 38.00000000000000000 ) ) ;
#43 = CC_DESIGN_DATE_AND_TIME_ASSIGNMENT ( #24, #201, ( #134 ) ) ;
#44 = APPROVAL_STATUS ( 'not_yet_approved' ) ;
#45 = COORDINATED_UNIVERSAL_TIME_OFFSET ( 1, 0, .AHEAD. ) ;
#46 = ORIENTED_EDGE ( 'NONE', *, *, #257, .F. ) ;
#47 = EDGE_LOOP ( 'NONE', ( #46 ) ) ;
#48 = COORDINATED_UNIVERSAL_TIME_OFFSET ( 1, 0, .AHEAD. ) ;
#49 = FACE_OUTER_BOUND ( 'NONE', #7, .T. ) ;
#50 = CARTESIAN_POINT ( 'NONE',  ( 1.256933281983528008E-14, 0.0000000000000000000, 3.600000000000000089 ) ) ;
#51 = DIRECTION ( 'NONE',  ( -3.491481338843133355E-15, 1.224646799147353207E-16, -1.000000000000000000 ) ) ;
#52 = FACE_OUTER_BOUND ( 'NONE', #169, .T. ) ;
#53 = PLANE ( 'NONE',  #111 ) ;
#54 = ADVANCED_FACE ( 'NONE', ( #240, #52 ), #153, .T. ) ;
#55 =( LENGTH_UNIT ( ) NAMED_UNIT ( * ) SI_UNIT ( .MILLI., .METRE. ) );
#56 = ORGANIZATION ( 'UNSPECIFIED', 'UNSPECIFIED', '' ) ;
#57 = CC_DESIGN_PERSON_AND_ORGANIZATION_ASSIGNMENT ( #186, #26, ( #134 ) ) ;
#58 = PLANE ( 'NONE',  #183 ) ;
#59 = APPLICATION_CONTEXT ( 'configuration controlled 3d designs of mechanical parts and assemblies' ) ;
#60 = ORIENTED_EDGE ( 'NONE', *, *, #254, .F. ) ;
#61 = ORIENTED_EDGE ( 'NONE', *, *, #178, .T. ) ;
#62 = PERSON_AND_ORGANIZATION ( #221, #56 ) ;
#63 = ORIENTED_EDGE ( 'NONE', *, *, #257, .T. ) ;
#64 = CC_DESIGN_PERSON_AND_ORGANIZATION_ASSIGNMENT ( #233, #19, ( #156 ) ) ;
#65 = EDGE_LOOP ( 'NONE', ( #184 ) ) ;
#66 = CALENDAR_DATE ( 2021, 28, 10 ) ;
#67 = DIRECTION ( 'NONE',  ( -1.000000000000000000, 0.0000000000000000000, 3.469446951953617739E-15 ) ) ;
#68 = CC_DESIGN_SECURITY_CLASSIFICATION ( #18, ( #156 ) ) ;
#69 = CARTESIAN_POINT ( 'NONE',  ( 1.326762908760390423E-13, -4.653657836759941941E-15, 38.00000000000000000 ) ) ;
#70 = CARTESIAN_POINT ( 'NONE',  ( 0.0000000000000000000, 0.0000000000000000000, 0.0000000000000000000 ) ) ;
#71 = DIRECTION ( 'NONE',  ( 3.491481338843133355E-15, 0.0000000000000000000, 1.000000000000000000 ) ) ;
#72 = CONICAL_SURFACE ( 'NONE', #29, 0.7499999999999992228, 0.2617993877991427465 ) ;
#73 = AXIS2_PLACEMENT_3D ( 'NONE', #109, #133, #33 ) ;
#74 = DIRECTION ( 'NONE',  ( -3.491481338843133355E-15, 1.224646799147353207E-16, -1.000000000000000000 ) ) ;
#75 = CARTESIAN_POINT ( 'NONE',  ( 1.326762908760390423E-13, -4.653657836759941941E-15, 38.00000000000000000 ) ) ;
#76 = FACE_BOUND ( 'NONE', #247, .T. ) ;
#77 = CONICAL_SURFACE ( 'NONE', #239, 1.199999999999999956, 0.7853981633974453924 ) ;
#78 = CARTESIAN_POINT ( 'NONE',  ( 3.124875798264604037E-14, 0.0000000000000000000, 8.949999999999999289 ) ) ;
#79 = PERSON_AND_ORGANIZATION ( #221, #56 ) ;
#80 =( NAMED_UNIT ( * ) SI_UNIT ( $, .STERADIAN. ) SOLID_ANGLE_UNIT ( ) );
#81 = ADVANCED_FACE ( 'NONE', ( #241 ), #132, .F. ) ;
#82 = PERSON_AND_ORGANIZATION ( #221, #56 ) ;
#83 = EDGE_LOOP ( 'NONE', ( #92 ) ) ;
#84 = LOCAL_TIME ( 11, 22, 23.00000000000000000, #48 ) ;
#85 = APPROVAL_DATE_TIME ( #104, #162 ) ;
#86 = ORIENTED_EDGE ( 'NONE', *, *, #254, .T. ) ;
#87 = APPROVAL ( #118, 'UNSPECIFIED' ) ;
#88 = DIRECTION ( 'NONE',  ( -3.491481338843133355E-15, 1.224646799147353207E-16, -1.000000000000000000 ) ) ;
#89 = DIRECTION ( 'NONE',  ( -1.000000000000000000, 0.0000000000000000000, 3.469446951953620500E-15 ) ) ;
#90 = AXIS2_PLACEMENT_3D ( 'NONE', #40, #243, #196 ) ;
#91 = MANIFOLD_SOLID_BREP ( 'Corps-Déplacer/Copier1[2]', #250 ) ;
#92 = ORIENTED_EDGE ( 'NONE', *, *, #150, .F. ) ;
#93 = DIRECTION ( 'NONE',  ( 3.491481338843133355E-15, -1.224646799147353207E-16, 1.000000000000000000 ) ) ;
#94 = CARTESIAN_POINT ( 'NONE',  ( 0.0000000000000000000, 0.0000000000000000000, 0.0000000000000000000 ) ) ;
#95 = CARTESIAN_POINT ( 'NONE',  ( -0.2249999999999869882, 0.0000000000000000000, 3.600000000000000977 ) ) ;
#96 = ADVANCED_FACE ( 'NONE', ( #217 ), #210, .T. ) ;
#97 = FACE_OUTER_BOUND ( 'NONE', #252, .T. ) ;
#98 = AXIS2_PLACEMENT_3D ( 'NONE', #78, #219, #2 ) ;
#99 = CARTESIAN_POINT ( 'NONE',  ( -1.499999999999961586, 0.0000000000000000000, 10.24903810567667861 ) ) ;
#100 = PRODUCT ( '962850', '962850', '', ( #199 ) ) ;
#101 = EDGE_CURVE ( 'NONE', #244, #244, #28, .T. ) ;
#102 = PERSON_AND_ORGANIZATION_ROLE ( 'classification_officer' ) ;
#103 = EDGE_LOOP ( 'NONE', ( #61 ) ) ;
#104 = DATE_AND_TIME ( #123, #10 ) ;
#105 = AXIS2_PLACEMENT_3D ( 'NONE', #129, #51, #213 ) ;
#106 = CALENDAR_DATE ( 2021, 28, 10 ) ;
#107 = ORIENTED_EDGE ( 'NONE', *, *, #20, .T. ) ;
#108 = LOCAL_TIME ( 11, 22, 23.00000000000000000, #165 ) ;
#109 = CARTESIAN_POINT ( 'NONE',  ( 1.256933281983528008E-14, 0.0000000000000000000, 3.600000000000000089 ) ) ;
#110 = UNCERTAINTY_MEASURE_WITH_UNIT (LENGTH_MEASURE( 1.000000000000000082E-05 ), #55, 'distance_accuracy_value', 'NONE');
#111 = AXIS2_PLACEMENT_3D ( 'NONE', #258, #93, #115 ) ;
#112 = DIRECTION ( 'NONE',  ( 1.000000000000000000, 0.0000000000000000000, -3.469446951953617739E-15 ) ) ;
#113 = CARTESIAN_POINT ( 'NONE',  ( 3.578432528706227793E-14, 0.0000000000000000000, 10.24903810567667328 ) ) ;
#114 = CC_DESIGN_PERSON_AND_ORGANIZATION_ASSIGNMENT ( #82, #149, ( #156 ) ) ;
#115 = DIRECTION ( 'NONE',  ( -4.275831445896958607E-31, -1.000000000000000000, -1.224646799147353207E-16 ) ) ;
#116 = FACE_OUTER_BOUND ( 'NONE', #145, .T. ) ;
#117 = VERTEX_POINT ( 'NONE', #225 ) ;
#118 = APPROVAL_STATUS ( 'not_yet_approved' ) ;
#119 = AXIS2_PLACEMENT_3D ( 'NONE', #50, #13, #173 ) ;
#120 = CC_DESIGN_APPROVAL ( #87, ( #134 ) ) ;
#121 = FACE_OUTER_BOUND ( 'NONE', #65, .T. ) ;
#122 =( NAMED_UNIT ( * ) PLANE_ANGLE_UNIT ( ) SI_UNIT ( $, .RADIAN. ) );
#123 = CALENDAR_DATE ( 2021, 28, 10 ) ;
#124 = CC_DESIGN_PERSON_AND_ORGANIZATION_ASSIGNMENT ( #79, #136, ( #100 ) ) ;
#125 = ORIENTED_EDGE ( 'NONE', *, *, #150, .T. ) ;
#126 = DATE_AND_TIME ( #146, #141 ) ;
#127 = ADVANCED_FACE ( 'NONE', ( #193, #216 ), #72, .T. ) ;
#128 = CYLINDRICAL_SURFACE ( 'NONE', #160, 0.7499999999999990008 ) ;
#129 = CARTESIAN_POINT ( 'NONE',  ( 1.326762908760390423E-13, 8.998558695971077224E-33, 38.00000000000000000 ) ) ;
#130 = ADVANCED_FACE ( 'NONE', ( #155, #116 ), #261, .T. ) ;
#131 = DIRECTION ( 'NONE',  ( 3.491481338843133355E-15, -1.224646799147353207E-16, 1.000000000000000000 ) ) ;
#132 = PLANE ( 'NONE',  #105 ) ;
#133 = DIRECTION ( 'NONE',  ( -3.491481338843133355E-15, 0.0000000000000000000, -1.000000000000000000 ) ) ;
#134 = PRODUCT_DEFINITION ( 'UNKNOWN', '', #156, #237 ) ;
#135 = VERTEX_POINT ( 'NONE', #223 ) ;
#136 = PERSON_AND_ORGANIZATION_ROLE ( 'design_owner' ) ;
#137 = VERTEX_POINT ( 'NONE', #142 ) ;
#138 = DIRECTION ( 'NONE',  ( -4.279844320860528400E-31, -1.000000000000000000, -1.204669080539450576E-16 ) ) ;
#139 = CLOSED_SHELL ( 'NONE', ( #54, #194, #81, #127, #208, #234, #249 ) ) ;
#140 = CIRCLE ( 'NONE', #171, 1.199999999999999956 ) ;
#141 = LOCAL_TIME ( 11, 22, 23.00000000000000000, #45 ) ;
#142 = CARTESIAN_POINT ( 'NONE',  ( 1.316288464743861212E-13, 1.499999999999995337, 37.69999999999999574 ) ) ;
#143 = EDGE_LOOP ( 'NONE', ( #15 ) ) ;
#144 = DATE_TIME_ROLE ( 'classification_date' ) ;
#145 = EDGE_LOOP ( 'NONE', ( #60 ) ) ;
#146 = CALENDAR_DATE ( 2021, 28, 10 ) ;
#147 = EDGE_LOOP ( 'NONE', ( #187 ) ) ;
#148 = ORIENTED_EDGE ( 'NONE', *, *, #263, .F. ) ;
#149 = PERSON_AND_ORGANIZATION_ROLE ( 'creator' ) ;
#150 = EDGE_CURVE ( 'NONE', #137, #137, #214, .T. ) ;
#151 = CARTESIAN_POINT ( 'NONE',  ( 1.906192921252232855E-15, -6.686024735685322183E-17, 0.5459553513993090634 ) ) ;
#152 = DIRECTION ( 'NONE',  ( -1.000000000000000000, 0.0000000000000000000, 3.491481338843133355E-15 ) ) ;
#153 = CYLINDRICAL_SURFACE ( 'NONE', #259, 1.499999999999997780 ) ;
#154 = APPLICATION_CONTEXT ( 'configuration controlled 3d designs of mechanical parts and assemblies' ) ;
#155 = FACE_OUTER_BOUND ( 'NONE', #103, .T. ) ;
#156 = PRODUCT_DEFINITION_FORMATION_WITH_SPECIFIED_SOURCE ( 'ANY', '', #100, .NOT_KNOWN. ) ;
#157 = DIRECTION ( 'NONE',  ( 0.0000000000000000000, 1.000000000000000000, 0.0000000000000000000 ) ) ;
#158 = CARTESIAN_POINT ( 'NONE',  ( -0.7499999999999797939, 0.0000000000000000000, 5.559326673973714605 ) ) ;
#159 = CARTESIAN_POINT ( 'NONE',  ( 2.859289381878349283E-16, -1.002903710352798050E-17, 0.08189330270989635119 ) ) ;
#160 = AXIS2_PLACEMENT_3D ( 'NONE', #212, #190, #152 ) ;
#161 = VERTEX_POINT ( 'NONE', #95 ) ;
#162 = APPROVAL ( #205, 'UNSPECIFIED' ) ;
#163 = CARTESIAN_POINT ( 'NONE',  ( 1.256933281983528008E-14, 1.124819836996389648E-32, 3.600000000000000089 ) ) ;
#164 = DIRECTION ( 'NONE',  ( 0.0000000000000000000, 1.000000000000000000, 0.0000000000000000000 ) ) ;
#165 = COORDINATED_UNIVERSAL_TIME_OFFSET ( 1, 0, .AHEAD. ) ;
#166 = APPROVAL_PERSON_ORGANIZATION ( #37, #87, #207 ) ;
#167 = AXIS2_PLACEMENT_3D ( 'NONE', #179, #242, #1 ) ;
#168 = APPROVAL_ROLE ( '' ) ;
#169 = EDGE_LOOP ( 'NONE', ( #125 ) ) ;
#170 = DIRECTION ( 'NONE',  ( 0.0000000000000000000, 1.000000000000000000, 0.0000000000000000000 ) ) ;
#171 = AXIS2_PLACEMENT_3D ( 'NONE', #75, #182, #164 ) ;
#172 = CARTESIAN_POINT ( 'NONE',  ( 1.316288464743861212E-13, -4.616918432785521081E-15, 37.69999999999999574 ) ) ;
#173 = DIRECTION ( 'NONE',  ( -1.000000000000000000, 0.0000000000000000000, 3.854941057726245789E-15 ) ) ;
#174 = EDGE_LOOP ( 'NONE', ( #232 ) ) ;
#175 = CIRCLE ( 'NONE', #73, 0.2249999999999995615 ) ;
#176 = DIRECTION ( 'NONE',  ( -1.000000000000000000, 0.0000000000000000000, 3.491481338843133355E-15 ) ) ;
#177 = AXIS2_PLACEMENT_3D ( 'NONE', #94, #191, #176 ) ;
#178 = EDGE_CURVE ( 'NONE', #135, #135, #175, .T. ) ;
#179 = CARTESIAN_POINT ( 'NONE',  ( 0.0000000000000000000, 0.0000000000000000000, 0.0000000000000000000 ) ) ;
#180 = PRODUCT_RELATED_PRODUCT_CATEGORY ( 'detail', '', ( #100 ) ) ;
#181 = MANIFOLD_SOLID_BREP ( 'Corps-Déplacer/Copier1[1]', #139 ) ;
#182 = DIRECTION ( 'NONE',  ( -3.491481338843133355E-15, 1.224646799147353207E-16, -1.000000000000000000 ) ) ;
#183 = AXIS2_PLACEMENT_3D ( 'NONE', #163, #35, #262 ) ;
#184 = ORIENTED_EDGE ( 'NONE', *, *, #101, .T. ) ;
#185 = COORDINATED_UNIVERSAL_TIME_OFFSET ( 1, 0, .AHEAD. ) ;
#186 = PERSON_AND_ORGANIZATION ( #221, #56 ) ;
#187 = ORIENTED_EDGE ( 'NONE', *, *, #178, .F. ) ;
#188 = AXIS2_PLACEMENT_3D ( 'NONE', #159, #3, #138 ) ;
#189 = COORDINATED_UNIVERSAL_TIME_OFFSET ( 1, 0, .AHEAD. ) ;
#190 = DIRECTION ( 'NONE',  ( -3.491481338843133355E-15, 0.0000000000000000000, -1.000000000000000000 ) ) ;
#191 = DIRECTION ( 'NONE',  ( -3.491481338843133355E-15, 0.0000000000000000000, -1.000000000000000000 ) ) ;
#192 = ADVANCED_BREP_SHAPE_REPRESENTATION ( '962850', ( #181, #91, #167 ), #215 ) ;
#193 = FACE_BOUND ( 'NONE', #206, .T. ) ;
#194 = ADVANCED_FACE ( 'NONE', ( #195, #255 ), #77, .T. ) ;
#195 = FACE_OUTER_BOUND ( 'NONE', #83, .T. ) ;
#196 = DIRECTION ( 'NONE',  ( 1.000000000000000000, 0.0000000000000000000, -3.469446951953620500E-15 ) ) ;
#197 = EDGE_CURVE ( 'NONE', #38, #38, #200, .T. ) ;
#198 = LOCAL_TIME ( 11, 22, 23.00000000000000000, #185 ) ;
#199 = MECHANICAL_CONTEXT ( 'NONE', #154, 'mechanical' ) ;
#200 = CIRCLE ( 'NONE', #224, 0.7499999999999992228 ) ;
#201 = DATE_TIME_ROLE ( 'creation_date' ) ;
#202 = APPROVAL_ROLE ( '' ) ;
#203 = ORIENTED_EDGE ( 'NONE', *, *, #20, .F. ) ;
#204 = CC_DESIGN_APPROVAL ( #162, ( #156 ) ) ;
#205 = APPROVAL_STATUS ( 'not_yet_approved' ) ;
#206 = EDGE_LOOP ( 'NONE', ( #203 ) ) ;
#207 = APPROVAL_ROLE ( '' ) ;
#208 = ADVANCED_FACE ( 'NONE', ( #235, #49 ), #128, .T. ) ;
#209 = PERSON_AND_ORGANIZATION ( #221, #56 ) ;
#210 = CONICAL_SURFACE ( 'NONE', #16, 1.499999999999995559, 1.221730476396026388 ) ;
#211 = CC_DESIGN_PERSON_AND_ORGANIZATION_ASSIGNMENT ( #227, #102, ( #18 ) ) ;
#212 = CARTESIAN_POINT ( 'NONE',  ( 0.0000000000000000000, 0.0000000000000000000, 0.0000000000000000000 ) ) ;
#213 = DIRECTION ( 'NONE',  ( 4.275831445896958607E-31, 1.000000000000000000, 1.224646799147353207E-16 ) ) ;
#214 = CIRCLE ( 'NONE', #11, 1.499999999999999778 ) ;
#215 =( GEOMETRIC_REPRESENTATION_CONTEXT ( 3 ) GLOBAL_UNCERTAINTY_ASSIGNED_CONTEXT ( ( #110 ) ) GLOBAL_UNIT_ASSIGNED_CONTEXT ( ( #55, #122, #80 ) ) REPRESENTATION_CONTEXT ( 'NONE', 'WORKASPACE' ) );
#216 = FACE_OUTER_BOUND ( 'NONE', #143, .T. ) ;
#217 = FACE_OUTER_BOUND ( 'NONE', #21, .T. ) ;
#218 = ORIENTED_EDGE ( 'NONE', *, *, #263, .T. ) ;
#219 = DIRECTION ( 'NONE',  ( -3.491481338843133355E-15, 0.0000000000000000000, -1.000000000000000000 ) ) ;
#220 = CC_DESIGN_APPROVAL ( #4, ( #18 ) ) ;
#221 = PERSON ( 'UNSPECIFIED', 'UNSPECIFIED', 'UNSPECIFIED', ('UNSPECIFIED'), ('UNSPECIFIED'), ('UNSPECIFIED') ) ;
#222 = APPLICATION_PROTOCOL_DEFINITION ( 'international standard', 'config_control_design', 1994, #154 ) ;
#223 = CARTESIAN_POINT ( 'NONE',  ( -0.2249999999999869882, 0.0000000000000000000, 3.600000000000000977 ) ) ;
#224 = AXIS2_PLACEMENT_3D ( 'NONE', #253, #236, #67 ) ;
#225 = CARTESIAN_POINT ( 'NONE',  ( 2.859289381878348297E-16, -0.2249999999999997558, 0.08189330270989633731 ) ) ;
#226 = VERTEX_POINT ( 'NONE', #42 ) ;
#227 = PERSON_AND_ORGANIZATION ( #221, #56 ) ;
#228 = CIRCLE ( 'NONE', #188, 0.2249999999999997558 ) ;
#229 = SHAPE_DEFINITION_REPRESENTATION ( #36, #192 ) ;
#230 = ORIENTED_EDGE ( 'NONE', *, *, #101, .F. ) ;
#231 = CC_DESIGN_DATE_AND_TIME_ASSIGNMENT ( #251, #144, ( #18 ) ) ;
#232 = ORIENTED_EDGE ( 'NONE', *, *, #197, .F. ) ;
#233 = PERSON_AND_ORGANIZATION ( #221, #56 ) ;
#234 = ADVANCED_FACE ( 'NONE', ( #76, #121 ), #27, .T. ) ;
#235 = FACE_OUTER_BOUND ( 'NONE', #174, .T. ) ;
#236 = DIRECTION ( 'NONE',  ( -3.491481338843133355E-15, 0.0000000000000000000, -1.000000000000000000 ) ) ;
#237 = DESIGN_CONTEXT ( 'detailed design', #59, 'design' ) ;
#238 = DIRECTION ( 'NONE',  ( 4.275831445896959482E-31, 1.000000000000000000, 1.224646799147353207E-16 ) ) ;
#239 = AXIS2_PLACEMENT_3D ( 'NONE', #69, #88, #170 ) ;
#240 = FACE_OUTER_BOUND ( 'NONE', #23, .T. ) ;
#241 = FACE_OUTER_BOUND ( 'NONE', #47, .T. ) ;
#242 = DIRECTION ( 'NONE',  ( 0.0000000000000000000, 0.0000000000000000000, 1.000000000000000000 ) ) ;
#243 = DIRECTION ( 'NONE',  ( 3.491481338843133355E-15, 0.0000000000000000000, 1.000000000000000000 ) ) ;
#244 = VERTEX_POINT ( 'NONE', #99 ) ;
#245 = APPLICATION_PROTOCOL_DEFINITION ( 'international standard', 'config_control_design', 1994, #59 ) ;
#246 = CARTESIAN_POINT ( 'NONE',  ( -0.7499999999999675815, 0.0000000000000000000, 8.950000000000002842 ) ) ;
#247 = EDGE_LOOP ( 'NONE', ( #148 ) ) ;
#248 = DATE_AND_TIME ( #106, #198 ) ;
#249 = ADVANCED_FACE ( 'NONE', ( #97 ), #58, .F. ) ;
#250 = CLOSED_SHELL ( 'NONE', ( #34, #130, #96 ) ) ;
#251 = DATE_AND_TIME ( #6, #108 ) ;
#252 = EDGE_LOOP ( 'NONE', ( #107 ) ) ;
#253 = CARTESIAN_POINT ( 'NONE',  ( 1.941028533871207902E-14, 0.0000000000000000000, 5.559326673973711941 ) ) ;
#254 = EDGE_CURVE ( 'NONE', #117, #117, #228, .T. ) ;
#255 = FACE_BOUND ( 'NONE', #30, .T. ) ;
#256 = FACE_OUTER_BOUND ( 'NONE', #147, .T. ) ;
#257 = EDGE_CURVE ( 'NONE', #226, #226, #140, .T. ) ;
#258 = CARTESIAN_POINT ( 'NONE',  ( 1.256933281983528008E-14, 1.124819836996389648E-32, 3.600000000000000089 ) ) ;
#259 = AXIS2_PLACEMENT_3D ( 'NONE', #70, #32, #238 ) ;
#260 = APPROVAL_PERSON_ORGANIZATION ( #209, #4, #168 ) ;
#261 = CYLINDRICAL_SURFACE ( 'NONE', #177, 0.2249999999999997558 ) ;
#262 = DIRECTION ( 'NONE',  ( -4.275831445896958607E-31, -1.000000000000000000, -1.224646799147353207E-16 ) ) ;
#263 = EDGE_CURVE ( 'NONE', #17, #17, #39, .T. ) ;
ENDSEC;
END-ISO-10303-21;
