ISO-10303-21;
HEADER;
FILE_DESCRIPTION (( 'STEP AP203' ),
    '1' );
FILE_NAME ('962822.step',
    '2021-10-28T09:22:23',
    ( '' ),
    ( '' ),
    'SwSTEP 2.0',
    'SolidWorks 2019',
    '' );
FILE_SCHEMA (( 'CONFIG_CONTROL_DESIGN' ));
ENDSEC;

DATA;
#1 = APPROVAL_STATUS ( 'not_yet_approved' ) ;
#2 = CC_DESIGN_APPROVAL ( #25, ( #164 ) ) ;
#3 = CARTESIAN_POINT ( 'NONE',  ( -0.1999999999999927669, 0.0000000000000000000, 2.000000000000000888 ) ) ;
#4 = CARTESIAN_POINT ( 'NONE',  ( 2.541590561669645451E-16, -0.1999999999999999278, 0.07279404685324125657 ) ) ;
#5 = AXIS2_PLACEMENT_3D ( 'NONE', #202, #101, #20 ) ;
#6 = CARTESIAN_POINT ( 'NONE',  ( -0.1999999999999927669, 0.0000000000000000000, 2.000000000000000888 ) ) ;
#7 = APPROVAL_ROLE ( '' ) ;
#8 = PRODUCT_RELATED_PRODUCT_CATEGORY ( 'detail', '', ( #221 ) ) ;
#9 = ORIENTED_EDGE ( 'NONE', *, *, #109, .F. ) ;
#10 = APPROVAL_DATE_TIME ( #85, #66 ) ;
#11 = EDGE_LOOP ( 'NONE', ( #37 ) ) ;
#12 = CARTESIAN_POINT ( 'NONE',  ( 6.982962677686266711E-15, 1.124819836996389785E-32, 2.000000000000000000 ) ) ;
#13 = AXIS2_PLACEMENT_3D ( 'NONE', #226, #84, #166 ) ;
#14 = PLANE ( 'NONE',  #19 ) ;
#15 = DIRECTION ( 'NONE',  ( -3.491481338843133355E-15, 1.224646799147353207E-16, -1.000000000000000000 ) ) ;
#16 = DIRECTION ( 'NONE',  ( 1.000000000000000000, 0.0000000000000000000, -3.469446951953617344E-15 ) ) ;
#17 = PLANE ( 'NONE',  #131 ) ;
#18 = FACE_OUTER_BOUND ( 'NONE', #259, .T. ) ;
#19 = AXIS2_PLACEMENT_3D ( 'NONE', #12, #98, #116 ) ;
#20 = DIRECTION ( 'NONE',  ( 1.000000000000000000, 0.0000000000000000000, 0.0000000000000000000 ) ) ;
#21 = DIRECTION ( 'NONE',  ( 3.491481338843133355E-15, 0.0000000000000000000, 1.000000000000000000 ) ) ;
#22 = ADVANCED_FACE ( 'NONE', ( #51 ), #17, .F. ) ;
#23 = EDGE_CURVE ( 'NONE', #24, #24, #225, .T. ) ;
#24 = VERTEX_POINT ( 'NONE', #220 ) ;
#25 = APPROVAL ( #45, 'UNSPECIFIED' ) ;
#26 = ORIENTED_EDGE ( 'NONE', *, *, #54, .F. ) ;
#27 = ADVANCED_FACE ( 'NONE', ( #33 ), #211, .T. ) ;
#28 = DATE_TIME_ROLE ( 'classification_date' ) ;
#29 = AXIS2_PLACEMENT_3D ( 'NONE', #140, #213, #199 ) ;
#30 = ORIENTED_EDGE ( 'NONE', *, *, #240, .T. ) ;
#31 = PERSON_AND_ORGANIZATION ( #56, #155 ) ;
#32 = CARTESIAN_POINT ( 'NONE',  ( 1.326762908760390423E-13, -4.653657836759941941E-15, 38.00000000000000000 ) ) ;
#33 = FACE_OUTER_BOUND ( 'NONE', #11, .T. ) ;
#34 = CIRCLE ( 'NONE', #29, 0.7499999999999993339 ) ;
#35 = CARTESIAN_POINT ( 'NONE',  ( 0.0000000000000000000, 0.0000000000000000000, 0.0000000000000000000 ) ) ;
#36 = CARTESIAN_POINT ( 'NONE',  ( 2.541590561669646437E-16, -8.914699647580437383E-18, 0.07279404685324128432 ) ) ;
#37 = ORIENTED_EDGE ( 'NONE', *, *, #54, .T. ) ;
#38 = CONICAL_SURFACE ( 'NONE', #112, 0.7499999999999993339, 0.2617993877991427465 ) ;
#39 = CARTESIAN_POINT ( 'NONE',  ( 1.326762908760390423E-13, 1.199999999999995293, 38.00000000000000000 ) ) ;
#40 = EDGE_CURVE ( 'NONE', #62, #62, #34, .T. ) ;
#41 = CYLINDRICAL_SURFACE ( 'NONE', #88, 1.499999999999997780 ) ;
#42 = PERSON_AND_ORGANIZATION ( #56, #155 ) ;
#43 = AXIS2_PLACEMENT_3D ( 'NONE', #94, #244, #126 ) ;
#44 = APPROVAL_STATUS ( 'not_yet_approved' ) ;
#45 = APPROVAL_STATUS ( 'not_yet_approved' ) ;
#46 = COORDINATED_UNIVERSAL_TIME_OFFSET ( 1, 0, .AHEAD. ) ;
#47 = ORIENTED_EDGE ( 'NONE', *, *, #109, .T. ) ;
#48 = APPROVAL_PERSON_ORGANIZATION ( #42, #66, #113 ) ;
#49 = ORIENTED_EDGE ( 'NONE', *, *, #193, .F. ) ;
#50 = CC_DESIGN_PERSON_AND_ORGANIZATION_ASSIGNMENT ( #89, #249, ( #164 ) ) ;
#51 = FACE_OUTER_BOUND ( 'NONE', #258, .T. ) ;
#52 = DIRECTION ( 'NONE',  ( 3.491481338843133355E-15, -1.224646799147353207E-16, 1.000000000000000000 ) ) ;
#53 = AXIS2_PLACEMENT_3D ( 'NONE', #107, #83, #82 ) ;
#54 = EDGE_CURVE ( 'NONE', #127, #127, #181, .T. ) ;
#55 = EDGE_LOOP ( 'NONE', ( #30 ) ) ;
#56 = PERSON ( 'UNSPECIFIED', 'UNSPECIFIED', 'UNSPECIFIED', ('UNSPECIFIED'), ('UNSPECIFIED'), ('UNSPECIFIED') ) ;
#57 = FACE_OUTER_BOUND ( 'NONE', #192, .T. ) ;
#58 = VERTEX_POINT ( 'NONE', #39 ) ;
#59 = CONICAL_SURFACE ( 'NONE', #191, 1.199999999999999956, 0.7853981633974453924 ) ;
#60 = ADVANCED_FACE ( 'NONE', ( #77 ), #14, .F. ) ;
#61 =( NAMED_UNIT ( * ) PLANE_ANGLE_UNIT ( ) SI_UNIT ( $, .RADIAN. ) );
#62 = VERTEX_POINT ( 'NONE', #124 ) ;
#63 = PRODUCT_DEFINITION_SHAPE ( 'NONE', 'NONE',  #170 ) ;
#64 = CLOSED_SHELL ( 'NONE', ( #245, #128, #22, #99, #187, #238, #60 ) ) ;
#65 = APPLICATION_PROTOCOL_DEFINITION ( 'international standard', 'config_control_design', 1994, #222 ) ;
#66 = APPROVAL ( #44, 'UNSPECIFIED' ) ;
#67 = PERSON_AND_ORGANIZATION_ROLE ( 'design_supplier' ) ;
#68 = AXIS2_PLACEMENT_3D ( 'NONE', #197, #15, #194 ) ;
#69 = PERSON_AND_ORGANIZATION_ROLE ( 'classification_officer' ) ;
#70 = SHAPE_DEFINITION_REPRESENTATION ( #63, #90 ) ;
#71 = ORIENTED_EDGE ( 'NONE', *, *, #209, .T. ) ;
#72 = MANIFOLD_SOLID_BREP ( 'Corps-Déplacer/Copier1[1]', #64 ) ;
#73 = CC_DESIGN_APPROVAL ( #257, ( #170 ) ) ;
#74 = ORIENTED_EDGE ( 'NONE', *, *, #193, .T. ) ;
#75 = FACE_BOUND ( 'NONE', #189, .T. ) ;
#76 = DIRECTION ( 'NONE',  ( -4.275831445896958607E-31, -1.000000000000000000, -1.224646799147353207E-16 ) ) ;
#77 = FACE_OUTER_BOUND ( 'NONE', #108, .T. ) ;
#78 = FACE_OUTER_BOUND ( 'NONE', #156, .T. ) ;
#79 = CYLINDRICAL_SURFACE ( 'NONE', #97, 0.7499999999999992228 ) ;
#80 = DIRECTION ( 'NONE',  ( 4.275831445896959482E-31, 1.000000000000000000, 1.224646799147353207E-16 ) ) ;
#81 = CIRCLE ( 'NONE', #68, 1.199999999999999956 ) ;
#82 = DIRECTION ( 'NONE',  ( -1.000000000000000000, 0.0000000000000000000, 4.336808689942023258E-15 ) ) ;
#83 = DIRECTION ( 'NONE',  ( -3.491481338843133355E-15, 0.0000000000000000000, -1.000000000000000000 ) ) ;
#84 = DIRECTION ( 'NONE',  ( -3.491481338843133355E-15, 1.224646799147353207E-16, -1.000000000000000000 ) ) ;
#85 = DATE_AND_TIME ( #175, #169 ) ;
#86 = APPROVAL_DATE_TIME ( #135, #25 ) ;
#87 = CC_DESIGN_PERSON_AND_ORGANIZATION_ASSIGNMENT ( #185, #147, ( #221 ) ) ;
#88 = AXIS2_PLACEMENT_3D ( 'NONE', #246, #203, #80 ) ;
#89 = PERSON_AND_ORGANIZATION ( #56, #155 ) ;
#90 = ADVANCED_BREP_SHAPE_REPRESENTATION ( '962822', ( #72, #165, #5 ), #235 ) ;
#91 = CIRCLE ( 'NONE', #53, 0.1999999999999997613 ) ;
#92 = FACE_OUTER_BOUND ( 'NONE', #130, .T. ) ;
#93 = EDGE_LOOP ( 'NONE', ( #71 ) ) ;
#94 = CARTESIAN_POINT ( 'NONE',  ( 6.982962677686266711E-15, 0.0000000000000000000, 2.000000000000000000 ) ) ;
#95 = DIRECTION ( 'NONE',  ( 3.491481338843133355E-15, 0.0000000000000000000, 1.000000000000000000 ) ) ;
#96 = CIRCLE ( 'NONE', #13, 1.499999999999999778 ) ;
#97 = AXIS2_PLACEMENT_3D ( 'NONE', #35, #119, #178 ) ;
#98 = DIRECTION ( 'NONE',  ( 3.491481338843133355E-15, -1.224646799147353207E-16, 1.000000000000000000 ) ) ;
#99 = ADVANCED_FACE ( 'NONE', ( #136, #92 ), #38, .T. ) ;
#100 = CC_DESIGN_DATE_AND_TIME_ASSIGNMENT ( #212, #228, ( #170 ) ) ;
#101 = DIRECTION ( 'NONE',  ( 0.0000000000000000000, 0.0000000000000000000, 1.000000000000000000 ) ) ;
#102 = FACE_OUTER_BOUND ( 'NONE', #172, .T. ) ;
#103 = APPROVAL_PERSON_ORGANIZATION ( #123, #257, #111 ) ;
#104 = CC_DESIGN_SECURITY_CLASSIFICATION ( #150, ( #164 ) ) ;
#105 = CARTESIAN_POINT ( 'NONE',  ( 3.019795514491327087E-14, 0.0000000000000000000, 8.649038105676673638 ) ) ;
#106 = VERTEX_POINT ( 'NONE', #6 ) ;
#107 = CARTESIAN_POINT ( 'NONE',  ( 6.982962677686266711E-15, 0.0000000000000000000, 2.000000000000000000 ) ) ;
#108 = EDGE_LOOP ( 'NONE', ( #207 ) ) ;
#109 = EDGE_CURVE ( 'NONE', #186, #186, #206, .T. ) ;
#110 = CC_DESIGN_DATE_AND_TIME_ASSIGNMENT ( #227, #28, ( #150 ) ) ;
#111 = APPROVAL_ROLE ( '' ) ;
#112 = AXIS2_PLACEMENT_3D ( 'NONE', #180, #95, #16 ) ;
#113 = APPROVAL_ROLE ( '' ) ;
#114 = CC_DESIGN_PERSON_AND_ORGANIZATION_ASSIGNMENT ( #252, #69, ( #150 ) ) ;
#115 = CALENDAR_DATE ( 2021, 28, 10 ) ;
#116 = DIRECTION ( 'NONE',  ( -4.275831445896958607E-31, -1.000000000000000000, -1.224646799147353207E-16 ) ) ;
#117 = LOCAL_TIME ( 11, 22, 23.00000000000000000, #129 ) ;
#118 = CARTESIAN_POINT ( 'NONE',  ( 3.019795514491327087E-14, 0.0000000000000000000, 8.649038105676673638 ) ) ;
#119 = DIRECTION ( 'NONE',  ( -3.491481338843133355E-15, 0.0000000000000000000, -1.000000000000000000 ) ) ;
#120 = DIRECTION ( 'NONE',  ( -1.000000000000000000, 0.0000000000000000000, 3.469446951953619711E-15 ) ) ;
#121 = ADVANCED_FACE ( 'NONE', ( #179, #78 ), #138, .T. ) ;
#122 = CARTESIAN_POINT ( 'NONE',  ( 1.326762908760390423E-13, 8.998558695971077224E-33, 38.00000000000000000 ) ) ;
#123 = PERSON_AND_ORGANIZATION ( #56, #155 ) ;
#124 = CARTESIAN_POINT ( 'NONE',  ( -0.7499999999999851230, 0.0000000000000000000, 4.052627944162938256 ) ) ;
#125 = AXIS2_PLACEMENT_3D ( 'NONE', #137, #52, #76 ) ;
#126 = DIRECTION ( 'NONE',  ( -1.000000000000000000, 0.0000000000000000000, 4.336808689942023258E-15 ) ) ;
#127 = VERTEX_POINT ( 'NONE', #4 ) ;
#128 = ADVANCED_FACE ( 'NONE', ( #57, #75 ), #59, .T. ) ;
#129 = COORDINATED_UNIVERSAL_TIME_OFFSET ( 1, 0, .AHEAD. ) ;
#130 = EDGE_LOOP ( 'NONE', ( #176 ) ) ;
#131 = AXIS2_PLACEMENT_3D ( 'NONE', #122, #162, #236 ) ;
#132 = ORIENTED_EDGE ( 'NONE', *, *, #23, .F. ) ;
#133 = CALENDAR_DATE ( 2021, 28, 10 ) ;
#134 = AXIS2_PLACEMENT_3D ( 'NONE', #118, #182, #120 ) ;
#135 = DATE_AND_TIME ( #115, #117 ) ;
#136 = FACE_BOUND ( 'NONE', #174, .T. ) ;
#137 = CARTESIAN_POINT ( 'NONE',  ( 6.982962677686266711E-15, 1.124819836996389785E-32, 2.000000000000000000 ) ) ;
#138 = CYLINDRICAL_SURFACE ( 'NONE', #168, 0.1999999999999999278 ) ;
#139 = APPLICATION_CONTEXT ( 'configuration controlled 3d designs of mechanical parts and assemblies' ) ;
#140 = CARTESIAN_POINT ( 'NONE',  ( 1.414967484031910227E-14, 0.0000000000000000000, 4.052627944162935592 ) ) ;
#141 = ADVANCED_FACE ( 'NONE', ( #233 ), #142, .T. ) ;
#142 = PLANE ( 'NONE',  #125 ) ;
#143 = CARTESIAN_POINT ( 'NONE',  ( -0.7499999999999734657, 0.0000000000000000000, 7.350000000000002309 ) ) ;
#144 = DESIGN_CONTEXT ( 'detailed design', #139, 'design' ) ;
#145 =( LENGTH_UNIT ( ) NAMED_UNIT ( * ) SI_UNIT ( .MILLI., .METRE. ) );
#146 = VERTEX_POINT ( 'NONE', #3 ) ;
#147 = PERSON_AND_ORGANIZATION_ROLE ( 'design_owner' ) ;
#148 = COORDINATED_UNIVERSAL_TIME_OFFSET ( 1, 0, .AHEAD. ) ;
#149 = COORDINATED_UNIVERSAL_TIME_OFFSET ( 1, 0, .AHEAD. ) ;
#150 = SECURITY_CLASSIFICATION ( '', '', #231 ) ;
#151 = ORIENTED_EDGE ( 'NONE', *, *, #198, .F. ) ;
#152 = CALENDAR_DATE ( 2021, 28, 10 ) ;
#153 = EDGE_LOOP ( 'NONE', ( #251 ) ) ;
#154 = EDGE_LOOP ( 'NONE', ( #255 ) ) ;
#155 = ORGANIZATION ( 'UNSPECIFIED', 'UNSPECIFIED', '' ) ;
#156 = EDGE_LOOP ( 'NONE', ( #26 ) ) ;
#157 = ORIENTED_EDGE ( 'NONE', *, *, #209, .F. ) ;
#158 = DIRECTION ( 'NONE',  ( 3.491481338843133355E-15, -1.224646799147353207E-16, 1.000000000000000000 ) ) ;
#159 = CARTESIAN_POINT ( 'NONE',  ( 1.906192921252232855E-15, -6.686024735685322183E-17, 0.5459553513993090634 ) ) ;
#160 = CC_DESIGN_PERSON_AND_ORGANIZATION_ASSIGNMENT ( #31, #67, ( #164 ) ) ;
#161 = CARTESIAN_POINT ( 'NONE',  ( 0.0000000000000000000, 0.0000000000000000000, 0.0000000000000000000 ) ) ;
#162 = DIRECTION ( 'NONE',  ( -3.491481338843133355E-15, 1.224646799147353207E-16, -1.000000000000000000 ) ) ;
#163 = CARTESIAN_POINT ( 'NONE',  ( 1.316288464743861212E-13, 1.499999999999995337, 37.69999999999999574 ) ) ;
#164 = PRODUCT_DEFINITION_FORMATION_WITH_SPECIFIED_SOURCE ( 'ANY', '', #221, .NOT_KNOWN. ) ;
#165 = MANIFOLD_SOLID_BREP ( 'Corps-Déplacer/Copier1[2]', #177 ) ;
#166 = DIRECTION ( 'NONE',  ( 0.0000000000000000000, 1.000000000000000000, 0.0000000000000000000 ) ) ;
#167 = APPLICATION_PROTOCOL_DEFINITION ( 'international standard', 'config_control_design', 1994, #139 ) ;
#168 = AXIS2_PLACEMENT_3D ( 'NONE', #161, #260, #237 ) ;
#169 = LOCAL_TIME ( 11, 22, 23.00000000000000000, #46 ) ;
#170 = PRODUCT_DEFINITION ( 'UNKNOWN', '', #164, #144 ) ;
#171 = PERSON_AND_ORGANIZATION_ROLE ( 'creator' ) ;
#172 = EDGE_LOOP ( 'NONE', ( #132 ) ) ;
#173 = AXIS2_PLACEMENT_3D ( 'NONE', #159, #158, #196 ) ;
#174 = EDGE_LOOP ( 'NONE', ( #151 ) ) ;
#175 = CALENDAR_DATE ( 2021, 28, 10 ) ;
#176 = ORIENTED_EDGE ( 'NONE', *, *, #40, .T. ) ;
#177 = CLOSED_SHELL ( 'NONE', ( #141, #121, #27 ) ) ;
#178 = DIRECTION ( 'NONE',  ( -1.000000000000000000, 0.0000000000000000000, 3.491481338843133355E-15 ) ) ;
#179 = FACE_OUTER_BOUND ( 'NONE', #55, .T. ) ;
#180 = CARTESIAN_POINT ( 'NONE',  ( 1.414967484031910227E-14, 0.0000000000000000000, 4.052627944162935592 ) ) ;
#181 = CIRCLE ( 'NONE', #247, 0.1999999999999999278 ) ;
#182 = DIRECTION ( 'NONE',  ( -3.491481338843133355E-15, 0.0000000000000000000, -1.000000000000000000 ) ) ;
#183 = CARTESIAN_POINT ( 'NONE',  ( 2.566238784049703016E-14, 0.0000000000000000000, 7.349999999999999645 ) ) ;
#184 = DIRECTION ( 'NONE',  ( 1.000000000000000000, 0.0000000000000000000, -3.469446951953619711E-15 ) ) ;
#185 = PERSON_AND_ORGANIZATION ( #56, #155 ) ;
#186 = VERTEX_POINT ( 'NONE', #143 ) ;
#187 = ADVANCED_FACE ( 'NONE', ( #216, #218 ), #79, .T. ) ;
#188 = CONICAL_SURFACE ( 'NONE', #200, 1.499999999999997558, 0.5235987755982927094 ) ;
#189 = EDGE_LOOP ( 'NONE', ( #74 ) ) ;
#190 = APPROVAL_DATE_TIME ( #230, #257 ) ;
#191 = AXIS2_PLACEMENT_3D ( 'NONE', #32, #261, #263 ) ;
#192 = EDGE_LOOP ( 'NONE', ( #157 ) ) ;
#193 = EDGE_CURVE ( 'NONE', #58, #58, #81, .T. ) ;
#194 = DIRECTION ( 'NONE',  ( 0.0000000000000000000, 1.000000000000000000, 0.0000000000000000000 ) ) ;
#195 = APPROVAL_PERSON_ORGANIZATION ( #254, #25, #7 ) ;
#196 = DIRECTION ( 'NONE',  ( -5.135813185032644414E-31, -1.000000000000000000, -1.445602896647343601E-16 ) ) ;
#197 = CARTESIAN_POINT ( 'NONE',  ( 1.326762908760390423E-13, -4.653657836759941941E-15, 38.00000000000000000 ) ) ;
#198 = EDGE_CURVE ( 'NONE', #106, #106, #219, .T. ) ;
#199 = DIRECTION ( 'NONE',  ( -1.000000000000000000, 0.0000000000000000000, 3.469446951953617344E-15 ) ) ;
#200 = AXIS2_PLACEMENT_3D ( 'NONE', #105, #21, #184 ) ;
#201 = DIRECTION ( 'NONE',  ( -4.814824860968091384E-31, -1.000000000000000000, -1.355252715606881036E-16 ) ) ;
#202 = CARTESIAN_POINT ( 'NONE',  ( 0.0000000000000000000, 0.0000000000000000000, 0.0000000000000000000 ) ) ;
#203 = DIRECTION ( 'NONE',  ( -3.491481338843133355E-15, 1.224646799147353207E-16, -1.000000000000000000 ) ) ;
#204 = CC_DESIGN_PERSON_AND_ORGANIZATION_ASSIGNMENT ( #208, #171, ( #170 ) ) ;
#205 =( NAMED_UNIT ( * ) SI_UNIT ( $, .STERADIAN. ) SOLID_ANGLE_UNIT ( ) );
#206 = CIRCLE ( 'NONE', #253, 0.7499999999999991118 ) ;
#207 = ORIENTED_EDGE ( 'NONE', *, *, #198, .T. ) ;
#208 = PERSON_AND_ORGANIZATION ( #56, #155 ) ;
#209 = EDGE_CURVE ( 'NONE', #248, #248, #96, .T. ) ;
#210 = ORIENTED_EDGE ( 'NONE', *, *, #23, .T. ) ;
#211 = CONICAL_SURFACE ( 'NONE', #173, 1.499999999999995559, 1.221730476396026388 ) ;
#212 = DATE_AND_TIME ( #152, #241 ) ;
#213 = DIRECTION ( 'NONE',  ( -3.491481338843133355E-15, 0.0000000000000000000, -1.000000000000000000 ) ) ;
#214 = EDGE_LOOP ( 'NONE', ( #9 ) ) ;
#215 = CC_DESIGN_APPROVAL ( #66, ( #150 ) ) ;
#216 = FACE_OUTER_BOUND ( 'NONE', #153, .T. ) ;
#217 = DIRECTION ( 'NONE',  ( -3.491481338843133355E-15, 1.224646799147353207E-16, -1.000000000000000000 ) ) ;
#218 = FACE_OUTER_BOUND ( 'NONE', #232, .T. ) ;
#219 = CIRCLE ( 'NONE', #43, 0.1999999999999997613 ) ;
#220 = CARTESIAN_POINT ( 'NONE',  ( -1.499999999999967581, 0.0000000000000000000, 8.649038105676678967 ) ) ;
#221 = PRODUCT ( '962822', '962822', '', ( #224 ) ) ;
#222 = APPLICATION_CONTEXT ( 'configuration controlled 3d designs of mechanical parts and assemblies' ) ;
#223 = FACE_OUTER_BOUND ( 'NONE', #93, .T. ) ;
#224 = MECHANICAL_CONTEXT ( 'NONE', #222, 'mechanical' ) ;
#225 = CIRCLE ( 'NONE', #134, 1.499999999999997558 ) ;
#226 = CARTESIAN_POINT ( 'NONE',  ( 1.316288464743861212E-13, -4.616918432785521081E-15, 37.69999999999999574 ) ) ;
#227 = DATE_AND_TIME ( #133, #242 ) ;
#228 = DATE_TIME_ROLE ( 'creation_date' ) ;
#229 = LOCAL_TIME ( 11, 22, 23.00000000000000000, #149 ) ;
#230 = DATE_AND_TIME ( #256, #229 ) ;
#231 = SECURITY_CLASSIFICATION_LEVEL ( 'unclassified' ) ;
#232 = EDGE_LOOP ( 'NONE', ( #47 ) ) ;
#233 = FACE_OUTER_BOUND ( 'NONE', #154, .T. ) ;
#234 = DIRECTION ( 'NONE',  ( -1.000000000000000000, 0.0000000000000000000, 3.469446951953618133E-15 ) ) ;
#235 =( GEOMETRIC_REPRESENTATION_CONTEXT ( 3 ) GLOBAL_UNCERTAINTY_ASSIGNED_CONTEXT ( ( #243 ) ) GLOBAL_UNIT_ASSIGNED_CONTEXT ( ( #145, #61, #205 ) ) REPRESENTATION_CONTEXT ( 'NONE', 'WORKASPACE' ) );
#236 = DIRECTION ( 'NONE',  ( 4.275831445896958607E-31, 1.000000000000000000, 1.224646799147353207E-16 ) ) ;
#237 = DIRECTION ( 'NONE',  ( -1.000000000000000000, 0.0000000000000000000, 3.491481338843133750E-15 ) ) ;
#238 = ADVANCED_FACE ( 'NONE', ( #239, #18 ), #188, .T. ) ;
#239 = FACE_BOUND ( 'NONE', #214, .T. ) ;
#240 = EDGE_CURVE ( 'NONE', #146, #146, #91, .T. ) ;
#241 = LOCAL_TIME ( 11, 22, 23.00000000000000000, #250 ) ;
#242 = LOCAL_TIME ( 11, 22, 23.00000000000000000, #148 ) ;
#243 = UNCERTAINTY_MEASURE_WITH_UNIT (LENGTH_MEASURE( 1.000000000000000082E-05 ), #145, 'distance_accuracy_value', 'NONE');
#244 = DIRECTION ( 'NONE',  ( -3.491481338843133355E-15, 0.0000000000000000000, -1.000000000000000000 ) ) ;
#245 = ADVANCED_FACE ( 'NONE', ( #102, #223 ), #41, .T. ) ;
#246 = CARTESIAN_POINT ( 'NONE',  ( 0.0000000000000000000, 0.0000000000000000000, 0.0000000000000000000 ) ) ;
#247 = AXIS2_PLACEMENT_3D ( 'NONE', #36, #217, #201 ) ;
#248 = VERTEX_POINT ( 'NONE', #163 ) ;
#249 = PERSON_AND_ORGANIZATION_ROLE ( 'creator' ) ;
#250 = COORDINATED_UNIVERSAL_TIME_OFFSET ( 1, 0, .AHEAD. ) ;
#251 = ORIENTED_EDGE ( 'NONE', *, *, #40, .F. ) ;
#252 = PERSON_AND_ORGANIZATION ( #56, #155 ) ;
#253 = AXIS2_PLACEMENT_3D ( 'NONE', #183, #262, #234 ) ;
#254 = PERSON_AND_ORGANIZATION ( #56, #155 ) ;
#255 = ORIENTED_EDGE ( 'NONE', *, *, #240, .F. ) ;
#256 = CALENDAR_DATE ( 2021, 28, 10 ) ;
#257 = APPROVAL ( #1, 'UNSPECIFIED' ) ;
#258 = EDGE_LOOP ( 'NONE', ( #49 ) ) ;
#259 = EDGE_LOOP ( 'NONE', ( #210 ) ) ;
#260 = DIRECTION ( 'NONE',  ( -3.491481338843133355E-15, 0.0000000000000000000, -1.000000000000000000 ) ) ;
#261 = DIRECTION ( 'NONE',  ( -3.491481338843133355E-15, 1.224646799147353207E-16, -1.000000000000000000 ) ) ;
#262 = DIRECTION ( 'NONE',  ( -3.491481338843133355E-15, 0.0000000000000000000, -1.000000000000000000 ) ) ;
#263 = DIRECTION ( 'NONE',  ( 0.0000000000000000000, 1.000000000000000000, 0.0000000000000000000 ) ) ;
ENDSEC;
END-ISO-10303-21;
