ISO-10303-21;
HEADER;
FILE_DESCRIPTION (( 'STEP AP203' ),
    '1' );
FILE_NAME ('962821.step',
    '2021-10-28T09:22:22',
    ( '' ),
    ( '' ),
    'SwSTEP 2.0',
    'SolidWorks 2019',
    '' );
FILE_SCHEMA (( 'CONFIG_CONTROL_DESIGN' ));
ENDSEC;

DATA;
#1 = CARTESIAN_POINT ( 'NONE',  ( 1.906192921252232855E-15, -6.686024735685322183E-17, 0.5459553513993090634 ) ) ;
#2 = CYLINDRICAL_SURFACE ( 'NONE', #158, 0.1749999999999999056 ) ;
#3 = DIRECTION ( 'NONE',  ( 3.491481338843133355E-15, -1.224646799147353207E-16, 1.000000000000000000 ) ) ;
#4 = DIRECTION ( 'NONE',  ( -3.491481338843133355E-15, 0.0000000000000000000, -1.000000000000000000 ) ) ;
#5 = AXIS2_PLACEMENT_3D ( 'NONE', #62, #18, #20 ) ;
#6 = FACE_OUTER_BOUND ( 'NONE', #72, .T. ) ;
#7 = CARTESIAN_POINT ( 'NONE',  ( 0.0000000000000000000, 0.0000000000000000000, 0.0000000000000000000 ) ) ;
#8 = DIRECTION ( 'NONE',  ( -4.275831445896958607E-31, -1.000000000000000000, -1.224646799147353207E-16 ) ) ;
#9 = DATE_TIME_ROLE ( 'classification_date' ) ;
#10 = CIRCLE ( 'NONE', #172, 0.7499999999999994449 ) ;
#11 = EDGE_LOOP ( 'NONE', ( #73 ) ) ;
#12 = COORDINATED_UNIVERSAL_TIME_OFFSET ( 1, 0, .AHEAD. ) ;
#13 = PRODUCT ( '962821', '962821', '', ( #166 ) ) ;
#14 = PERSON_AND_ORGANIZATION ( #238, #51 ) ;
#15 = CONICAL_SURFACE ( 'NONE', #37, 1.499999999999997558, 0.5235987755982927094 ) ;
#16 = APPROVAL_DATE_TIME ( #240, #119 ) ;
#17 = CARTESIAN_POINT ( 'NONE',  ( 6.982962677686266711E-15, 1.124819836996389785E-32, 2.000000000000000000 ) ) ;
#18 = DIRECTION ( 'NONE',  ( -3.491481338843133355E-15, 0.0000000000000000000, -1.000000000000000000 ) ) ;
#19 = FACE_OUTER_BOUND ( 'NONE', #115, .T. ) ;
#20 = DIRECTION ( 'NONE',  ( -1.000000000000000000, 0.0000000000000000000, 3.491481338843133355E-15 ) ) ;
#21 = EDGE_CURVE ( 'NONE', #235, #235, #153, .T. ) ;
#22 = ADVANCED_FACE ( 'NONE', ( #159, #43 ), #250, .T. ) ;
#23 = DIRECTION ( 'NONE',  ( -5.502656983963534012E-31, -1.000000000000000000, -1.548860246407864322E-16 ) ) ;
#24 = CLOSED_SHELL ( 'NONE', ( #139, #242, #134, #247, #22, #41, #198 ) ) ;
#25 = CARTESIAN_POINT ( 'NONE',  ( 1.316288464743861212E-13, 1.499999999999995337, 37.69999999999999574 ) ) ;
#26 = CARTESIAN_POINT ( 'NONE',  ( 1.326762908760390423E-13, 1.199999999999995293, 38.00000000000000000 ) ) ;
#27 = CARTESIAN_POINT ( 'NONE',  ( -0.1749999999999928280, 0.0000000000000000000, 2.000000000000000444 ) ) ;
#28 = APPROVAL_PERSON_ORGANIZATION ( #14, #87, #129 ) ;
#29 =( LENGTH_UNIT ( ) NAMED_UNIT ( * ) SI_UNIT ( .MILLI., .METRE. ) );
#30 = AXIS2_PLACEMENT_3D ( 'NONE', #1, #3, #59 ) ;
#31 = VERTEX_POINT ( 'NONE', #26 ) ;
#32 = CIRCLE ( 'NONE', #61, 1.199999999999999956 ) ;
#33 = EDGE_LOOP ( 'NONE', ( #203 ) ) ;
#34 = ADVANCED_BREP_SHAPE_REPRESENTATION ( '962821', ( #243, #148, #168 ), #131 ) ;
#35 = EDGE_LOOP ( 'NONE', ( #196 ) ) ;
#36 = APPROVAL_DATE_TIME ( #174, #87 ) ;
#37 = AXIS2_PLACEMENT_3D ( 'NONE', #249, #122, #165 ) ;
#38 = DIRECTION ( 'NONE',  ( -3.491481338843133355E-15, 1.224646799147353207E-16, -1.000000000000000000 ) ) ;
#39 = CC_DESIGN_PERSON_AND_ORGANIZATION_ASSIGNMENT ( #54, #50, ( #231 ) ) ;
#40 = DIRECTION ( 'NONE',  ( -3.491481338843133355E-15, 1.224646799147353207E-16, -1.000000000000000000 ) ) ;
#41 = ADVANCED_FACE ( 'NONE', ( #204, #183 ), #15, .T. ) ;
#42 = CARTESIAN_POINT ( 'NONE',  ( 6.982962677686266711E-15, 0.0000000000000000000, 2.000000000000000000 ) ) ;
#43 = FACE_OUTER_BOUND ( 'NONE', #11, .T. ) ;
#44 = APPLICATION_PROTOCOL_DEFINITION ( 'international standard', 'config_control_design', 1994, #220 ) ;
#45 = CARTESIAN_POINT ( 'NONE',  ( 1.447543448407513888E-14, 0.0000000000000000000, 4.145929214352160663 ) ) ;
#46 =( NAMED_UNIT ( * ) SI_UNIT ( $, .STERADIAN. ) SOLID_ANGLE_UNIT ( ) );
#47 = DIRECTION ( 'NONE',  ( 1.000000000000000000, 0.0000000000000000000, 0.0000000000000000000 ) ) ;
#48 = CC_DESIGN_DATE_AND_TIME_ASSIGNMENT ( #77, #9, ( #231 ) ) ;
#49 = ORIENTED_EDGE ( 'NONE', *, *, #167, .T. ) ;
#50 = PERSON_AND_ORGANIZATION_ROLE ( 'classification_officer' ) ;
#51 = ORGANIZATION ( 'UNSPECIFIED', 'UNSPECIFIED', '' ) ;
#52 = ADVANCED_FACE ( 'NONE', ( #6 ), #123, .T. ) ;
#53 = ORIENTED_EDGE ( 'NONE', *, *, #95, .T. ) ;
#54 = PERSON_AND_ORGANIZATION ( #238, #51 ) ;
#55 = LOCAL_TIME ( 11, 22, 22.00000000000000000, #132 ) ;
#56 = ADVANCED_FACE ( 'NONE', ( #101, #19 ), #2, .T. ) ;
#57 = DIRECTION ( 'NONE',  ( -3.491481338843133355E-15, 1.224646799147353207E-16, -1.000000000000000000 ) ) ;
#58 = ORIENTED_EDGE ( 'NONE', *, *, #213, .T. ) ;
#59 = DIRECTION ( 'NONE',  ( -5.135813185032644414E-31, -1.000000000000000000, -1.445602896647343601E-16 ) ) ;
#60 = CC_DESIGN_APPROVAL ( #173, ( #231 ) ) ;
#61 = AXIS2_PLACEMENT_3D ( 'NONE', #226, #40, #207 ) ;
#62 = CARTESIAN_POINT ( 'NONE',  ( 0.0000000000000000000, 0.0000000000000000000, 0.0000000000000000000 ) ) ;
#63 = CARTESIAN_POINT ( 'NONE',  ( 0.0000000000000000000, 0.0000000000000000000, 0.0000000000000000000 ) ) ;
#64 = CIRCLE ( 'NONE', #84, 0.1749999999999999056 ) ;
#65 = CC_DESIGN_APPROVAL ( #119, ( #105 ) ) ;
#66 = DIRECTION ( 'NONE',  ( 0.0000000000000000000, 1.000000000000000000, 0.0000000000000000000 ) ) ;
#67 = DIRECTION ( 'NONE',  ( -1.000000000000000000, 0.0000000000000000000, 3.469446951953616950E-15 ) ) ;
#68 = FACE_OUTER_BOUND ( 'NONE', #236, .T. ) ;
#69 = DIRECTION ( 'NONE',  ( 3.491481338843133355E-15, 0.0000000000000000000, 1.000000000000000000 ) ) ;
#70 = PRODUCT_DEFINITION_SHAPE ( 'NONE', 'NONE',  #105 ) ;
#71 = SHAPE_DEFINITION_REPRESENTATION ( #70, #34 ) ;
#72 = EDGE_LOOP ( 'NONE', ( #130 ) ) ;
#73 = ORIENTED_EDGE ( 'NONE', *, *, #21, .T. ) ;
#74 = APPROVAL_ROLE ( '' ) ;
#75 = AXIS2_PLACEMENT_3D ( 'NONE', #225, #38, #121 ) ;
#76 = EDGE_LOOP ( 'NONE', ( #262 ) ) ;
#77 = DATE_AND_TIME ( #175, #55 ) ;
#78 = EDGE_LOOP ( 'NONE', ( #241 ) ) ;
#79 = EDGE_LOOP ( 'NONE', ( #221 ) ) ;
#80 = CIRCLE ( 'NONE', #217, 1.499999999999999778 ) ;
#81 = FACE_OUTER_BOUND ( 'NONE', #96, .T. ) ;
#82 = CARTESIAN_POINT ( 'NONE',  ( 1.326762908760390423E-13, 8.998558695971077224E-33, 38.00000000000000000 ) ) ;
#83 = FACE_OUTER_BOUND ( 'NONE', #152, .T. ) ;
#84 = AXIS2_PLACEMENT_3D ( 'NONE', #230, #98, #23 ) ;
#85 = EDGE_LOOP ( 'NONE', ( #58 ) ) ;
#86 = DIRECTION ( 'NONE',  ( 0.0000000000000000000, 0.0000000000000000000, 1.000000000000000000 ) ) ;
#87 = APPROVAL ( #94, 'UNSPECIFIED' ) ;
#88 = PERSON_AND_ORGANIZATION ( #238, #51 ) ;
#89 = DIRECTION ( 'NONE',  ( 3.491481338843133355E-15, -1.224646799147353207E-16, 1.000000000000000000 ) ) ;
#90 = LOCAL_TIME ( 11, 22, 22.00000000000000000, #157 ) ;
#91 = DATE_AND_TIME ( #154, #90 ) ;
#92 = COORDINATED_UNIVERSAL_TIME_OFFSET ( 1, 0, .AHEAD. ) ;
#93 = PERSON_AND_ORGANIZATION_ROLE ( 'design_supplier' ) ;
#94 = APPROVAL_STATUS ( 'not_yet_approved' ) ;
#95 = EDGE_CURVE ( 'NONE', #209, #209, #64, .T. ) ;
#96 = EDGE_LOOP ( 'NONE', ( #53 ) ) ;
#97 = CC_DESIGN_PERSON_AND_ORGANIZATION_ASSIGNMENT ( #193, #197, ( #105 ) ) ;
#98 = DIRECTION ( 'NONE',  ( -3.491481338843133355E-15, 1.224646799147353207E-16, -1.000000000000000000 ) ) ;
#99 = DIRECTION ( 'NONE',  ( -4.275831445896958607E-31, -1.000000000000000000, -1.224646799147353207E-16 ) ) ;
#100 = DIRECTION ( 'NONE',  ( -3.491481338843133355E-15, 0.0000000000000000000, -1.000000000000000000 ) ) ;
#101 = FACE_OUTER_BOUND ( 'NONE', #79, .T. ) ;
#102 = ORIENTED_EDGE ( 'NONE', *, *, #95, .F. ) ;
#103 = DIRECTION ( 'NONE',  ( -3.491481338843133355E-15, 1.224646799147353207E-16, -1.000000000000000000 ) ) ;
#104 = EDGE_CURVE ( 'NONE', #214, #214, #223, .T. ) ;
#105 = PRODUCT_DEFINITION ( 'UNKNOWN', '', #141, #199 ) ;
#106 = CARTESIAN_POINT ( 'NONE',  ( -0.7499999999999849010, 0.0000000000000000000, 4.145929214352163328 ) ) ;
#107 = DIRECTION ( 'NONE',  ( -3.491481338843133355E-15, 1.224646799147353207E-16, -1.000000000000000000 ) ) ;
#108 = APPROVAL_PERSON_ORGANIZATION ( #88, #119, #178 ) ;
#109 = AXIS2_PLACEMENT_3D ( 'NONE', #205, #144, #120 ) ;
#110 =( NAMED_UNIT ( * ) PLANE_ANGLE_UNIT ( ) SI_UNIT ( $, .RADIAN. ) );
#111 = CARTESIAN_POINT ( 'NONE',  ( 6.982962677686266711E-15, 1.124819836996389785E-32, 2.000000000000000000 ) ) ;
#112 = CONICAL_SURFACE ( 'NONE', #181, 0.7499999999999994449, 0.2617993877991427465 ) ;
#113 = PERSON_AND_ORGANIZATION ( #238, #51 ) ;
#114 = ORIENTED_EDGE ( 'NONE', *, *, #213, .F. ) ;
#115 = EDGE_LOOP ( 'NONE', ( #102 ) ) ;
#116 = PERSON_AND_ORGANIZATION_ROLE ( 'creator' ) ;
#117 = ADVANCED_FACE ( 'NONE', ( #81 ), #257, .T. ) ;
#118 = DATE_AND_TIME ( #222, #195 ) ;
#119 = APPROVAL ( #169, 'UNSPECIFIED' ) ;
#120 = DIRECTION ( 'NONE',  ( -1.000000000000000000, 0.0000000000000000000, 3.469446951953619711E-15 ) ) ;
#121 = DIRECTION ( 'NONE',  ( 4.275831445896959482E-31, 1.000000000000000000, 1.224646799147353207E-16 ) ) ;
#122 = DIRECTION ( 'NONE',  ( 3.491481338843133355E-15, 0.0000000000000000000, 1.000000000000000000 ) ) ;
#123 = PLANE ( 'NONE',  #189 ) ;
#124 = CARTESIAN_POINT ( 'NONE',  ( -0.7499999999999734657, 0.0000000000000000000, 7.350000000000002309 ) ) ;
#125 = AXIS2_PLACEMENT_3D ( 'NONE', #229, #100, #251 ) ;
#126 = LOCAL_TIME ( 11, 22, 22.00000000000000000, #12 ) ;
#127 = DIRECTION ( 'NONE',  ( -3.491481338843133355E-15, 0.0000000000000000000, -1.000000000000000000 ) ) ;
#128 = DIRECTION ( 'NONE',  ( 1.000000000000000000, 0.0000000000000000000, -3.469446951953616950E-15 ) ) ;
#129 = APPROVAL_ROLE ( '' ) ;
#130 = ORIENTED_EDGE ( 'NONE', *, *, #185, .F. ) ;
#131 =( GEOMETRIC_REPRESENTATION_CONTEXT ( 3 ) GLOBAL_UNCERTAINTY_ASSIGNED_CONTEXT ( ( #248 ) ) GLOBAL_UNIT_ASSIGNED_CONTEXT ( ( #29, #110, #46 ) ) REPRESENTATION_CONTEXT ( 'NONE', 'WORKASPACE' ) );
#132 = COORDINATED_UNIVERSAL_TIME_OFFSET ( 1, 0, .AHEAD. ) ;
#133 = APPROVAL_STATUS ( 'not_yet_approved' ) ;
#134 = ADVANCED_FACE ( 'NONE', ( #142 ), #245, .F. ) ;
#135 = PERSON_AND_ORGANIZATION ( #238, #51 ) ;
#136 = EDGE_LOOP ( 'NONE', ( #161 ) ) ;
#137 = CC_DESIGN_DATE_AND_TIME_ASSIGNMENT ( #118, #237, ( #105 ) ) ;
#138 = CYLINDRICAL_SURFACE ( 'NONE', #75, 1.499999999999997780 ) ;
#139 = ADVANCED_FACE ( 'NONE', ( #246, #228 ), #138, .T. ) ;
#140 = DIRECTION ( 'NONE',  ( -1.000000000000000000, 0.0000000000000000000, 2.478176394252584099E-15 ) ) ;
#141 = PRODUCT_DEFINITION_FORMATION_WITH_SPECIFIED_SOURCE ( 'ANY', '', #13, .NOT_KNOWN. ) ;
#142 = FACE_OUTER_BOUND ( 'NONE', #35, .T. ) ;
#143 = CIRCLE ( 'NONE', #177, 0.1749999999999998224 ) ;
#144 = DIRECTION ( 'NONE',  ( -3.491481338843133355E-15, 0.0000000000000000000, -1.000000000000000000 ) ) ;
#145 = DIRECTION ( 'NONE',  ( -3.491481338843133355E-15, 0.0000000000000000000, -1.000000000000000000 ) ) ;
#146 = VERTEX_POINT ( 'NONE', #210 ) ;
#147 = PERSON_AND_ORGANIZATION ( #238, #51 ) ;
#148 = MANIFOLD_SOLID_BREP ( 'Corps-Déplacer/Copier1[2]', #234 ) ;
#149 = VERTEX_POINT ( 'NONE', #170 ) ;
#150 = FACE_OUTER_BOUND ( 'NONE', #33, .T. ) ;
#151 = FACE_BOUND ( 'NONE', #78, .T. ) ;
#152 = EDGE_LOOP ( 'NONE', ( #219 ) ) ;
#153 = CIRCLE ( 'NONE', #125, 0.7499999999999991118 ) ;
#154 = CALENDAR_DATE ( 2021, 28, 10 ) ;
#155 = EDGE_LOOP ( 'NONE', ( #49 ) ) ;
#156 = CC_DESIGN_PERSON_AND_ORGANIZATION_ASSIGNMENT ( #135, #116, ( #141 ) ) ;
#157 = COORDINATED_UNIVERSAL_TIME_OFFSET ( 1, 0, .AHEAD. ) ;
#158 = AXIS2_PLACEMENT_3D ( 'NONE', #63, #145, #206 ) ;
#159 = FACE_OUTER_BOUND ( 'NONE', #76, .T. ) ;
#160 = DIRECTION ( 'NONE',  ( 4.275831445896958607E-31, 1.000000000000000000, 1.224646799147353207E-16 ) ) ;
#161 = ORIENTED_EDGE ( 'NONE', *, *, #191, .T. ) ;
#162 = PLANE ( 'NONE',  #256 ) ;
#163 = CONICAL_SURFACE ( 'NONE', #201, 1.199999999999999956, 0.7853981633974453924 ) ;
#164 = CC_DESIGN_PERSON_AND_ORGANIZATION_ASSIGNMENT ( #200, #93, ( #141 ) ) ;
#165 = DIRECTION ( 'NONE',  ( 1.000000000000000000, 0.0000000000000000000, -3.469446951953619711E-15 ) ) ;
#166 = MECHANICAL_CONTEXT ( 'NONE', #220, 'mechanical' ) ;
#167 = EDGE_CURVE ( 'NONE', #149, #149, #227, .T. ) ;
#168 = AXIS2_PLACEMENT_3D ( 'NONE', #7, #86, #47 ) ;
#169 = APPROVAL_STATUS ( 'not_yet_approved' ) ;
#170 = CARTESIAN_POINT ( 'NONE',  ( -1.499999999999967581, 0.0000000000000000000, 8.649038105676678967 ) ) ;
#171 = CARTESIAN_POINT ( 'NONE',  ( 1.326762908760390423E-13, -4.653657836759941941E-15, 38.00000000000000000 ) ) ;
#172 = AXIS2_PLACEMENT_3D ( 'NONE', #190, #127, #67 ) ;
#173 = APPROVAL ( #133, 'UNSPECIFIED' ) ;
#174 = DATE_AND_TIME ( #261, #176 ) ;
#175 = CALENDAR_DATE ( 2021, 28, 10 ) ;
#176 = LOCAL_TIME ( 11, 22, 22.00000000000000000, #92 ) ;
#177 = AXIS2_PLACEMENT_3D ( 'NONE', #42, #4, #140 ) ;
#178 = APPROVAL_ROLE ( '' ) ;
#179 = EDGE_LOOP ( 'NONE', ( #263 ) ) ;
#180 = SECURITY_CLASSIFICATION_LEVEL ( 'unclassified' ) ;
#181 = AXIS2_PLACEMENT_3D ( 'NONE', #45, #69, #128 ) ;
#182 = DIRECTION ( 'NONE',  ( -3.491481338843133355E-15, 0.0000000000000000000, -1.000000000000000000 ) ) ;
#183 = FACE_OUTER_BOUND ( 'NONE', #155, .T. ) ;
#184 = DIRECTION ( 'NONE',  ( 3.491481338843133355E-15, -1.224646799147353207E-16, 1.000000000000000000 ) ) ;
#185 = EDGE_CURVE ( 'NONE', #146, #146, #143, .T. ) ;
#186 = DIRECTION ( 'NONE',  ( -1.000000000000000000, 0.0000000000000000000, 2.478176394252584099E-15 ) ) ;
#187 = VERTEX_POINT ( 'NONE', #106 ) ;
#188 = DIRECTION ( 'NONE',  ( 0.0000000000000000000, 1.000000000000000000, 0.0000000000000000000 ) ) ;
#189 = AXIS2_PLACEMENT_3D ( 'NONE', #17, #184, #99 ) ;
#190 = CARTESIAN_POINT ( 'NONE',  ( 1.447543448407513888E-14, 0.0000000000000000000, 4.145929214352160663 ) ) ;
#191 = EDGE_CURVE ( 'NONE', #31, #31, #32, .T. ) ;
#192 = CARTESIAN_POINT ( 'NONE',  ( 1.316288464743861212E-13, -4.616918432785521081E-15, 37.69999999999999574 ) ) ;
#193 = PERSON_AND_ORGANIZATION ( #238, #51 ) ;
#194 = AXIS2_PLACEMENT_3D ( 'NONE', #208, #182, #186 ) ;
#195 = LOCAL_TIME ( 11, 22, 22.00000000000000000, #259 ) ;
#196 = ORIENTED_EDGE ( 'NONE', *, *, #191, .F. ) ;
#197 = PERSON_AND_ORGANIZATION_ROLE ( 'creator' ) ;
#198 = ADVANCED_FACE ( 'NONE', ( #83 ), #162, .F. ) ;
#199 = DESIGN_CONTEXT ( 'detailed design', #253, 'design' ) ;
#200 = PERSON_AND_ORGANIZATION ( #238, #51 ) ;
#201 = AXIS2_PLACEMENT_3D ( 'NONE', #171, #103, #66 ) ;
#202 = APPROVAL_DATE_TIME ( #91, #173 ) ;
#203 = ORIENTED_EDGE ( 'NONE', *, *, #244, .T. ) ;
#204 = FACE_BOUND ( 'NONE', #224, .T. ) ;
#205 = CARTESIAN_POINT ( 'NONE',  ( 3.019795514491327087E-14, 0.0000000000000000000, 8.649038105676673638 ) ) ;
#206 = DIRECTION ( 'NONE',  ( -1.000000000000000000, 0.0000000000000000000, 3.491481338843133355E-15 ) ) ;
#207 = DIRECTION ( 'NONE',  ( 0.0000000000000000000, 1.000000000000000000, 0.0000000000000000000 ) ) ;
#208 = CARTESIAN_POINT ( 'NONE',  ( 6.982962677686266711E-15, 0.0000000000000000000, 2.000000000000000000 ) ) ;
#209 = VERTEX_POINT ( 'NONE', #218 ) ;
#210 = CARTESIAN_POINT ( 'NONE',  ( -0.1749999999999928280, 0.0000000000000000000, 2.000000000000000444 ) ) ;
#211 = PRODUCT_RELATED_PRODUCT_CATEGORY ( 'detail', '', ( #13 ) ) ;
#212 = APPLICATION_PROTOCOL_DEFINITION ( 'international standard', 'config_control_design', 1994, #253 ) ;
#213 = EDGE_CURVE ( 'NONE', #233, #233, #80, .T. ) ;
#214 = VERTEX_POINT ( 'NONE', #27 ) ;
#215 = CC_DESIGN_SECURITY_CLASSIFICATION ( #231, ( #141 ) ) ;
#216 = APPROVAL_PERSON_ORGANIZATION ( #113, #173, #74 ) ;
#217 = AXIS2_PLACEMENT_3D ( 'NONE', #192, #107, #188 ) ;
#218 = CARTESIAN_POINT ( 'NONE',  ( 2.223891741460940632E-16, -0.1749999999999999056, 0.06369479099658612031 ) ) ;
#219 = ORIENTED_EDGE ( 'NONE', *, *, #104, .T. ) ;
#220 = APPLICATION_CONTEXT ( 'configuration controlled 3d designs of mechanical parts and assemblies' ) ;
#221 = ORIENTED_EDGE ( 'NONE', *, *, #185, .T. ) ;
#222 = CALENDAR_DATE ( 2021, 28, 10 ) ;
#223 = CIRCLE ( 'NONE', #194, 0.1749999999999998224 ) ;
#224 = EDGE_LOOP ( 'NONE', ( #258 ) ) ;
#225 = CARTESIAN_POINT ( 'NONE',  ( 0.0000000000000000000, 0.0000000000000000000, 0.0000000000000000000 ) ) ;
#226 = CARTESIAN_POINT ( 'NONE',  ( 1.326762908760390423E-13, -4.653657836759941941E-15, 38.00000000000000000 ) ) ;
#227 = CIRCLE ( 'NONE', #109, 1.499999999999997558 ) ;
#228 = FACE_OUTER_BOUND ( 'NONE', #85, .T. ) ;
#229 = CARTESIAN_POINT ( 'NONE',  ( 2.566238784049703016E-14, 0.0000000000000000000, 7.349999999999999645 ) ) ;
#230 = CARTESIAN_POINT ( 'NONE',  ( 2.223891741460941618E-16, -7.800362191632880399E-18, 0.06369479099658614807 ) ) ;
#231 = SECURITY_CLASSIFICATION ( '', '', #180 ) ;
#232 = PERSON_AND_ORGANIZATION_ROLE ( 'design_owner' ) ;
#233 = VERTEX_POINT ( 'NONE', #25 ) ;
#234 = CLOSED_SHELL ( 'NONE', ( #52, #56, #117 ) ) ;
#235 = VERTEX_POINT ( 'NONE', #124 ) ;
#236 = EDGE_LOOP ( 'NONE', ( #114 ) ) ;
#237 = DATE_TIME_ROLE ( 'creation_date' ) ;
#238 = PERSON ( 'UNSPECIFIED', 'UNSPECIFIED', 'UNSPECIFIED', ('UNSPECIFIED'), ('UNSPECIFIED'), ('UNSPECIFIED') ) ;
#239 = CALENDAR_DATE ( 2021, 28, 10 ) ;
#240 = DATE_AND_TIME ( #239, #126 ) ;
#241 = ORIENTED_EDGE ( 'NONE', *, *, #104, .F. ) ;
#242 = ADVANCED_FACE ( 'NONE', ( #68, #254 ), #163, .T. ) ;
#243 = MANIFOLD_SOLID_BREP ( 'Corps-Déplacer/Copier1[1]', #24 ) ;
#244 = EDGE_CURVE ( 'NONE', #187, #187, #10, .T. ) ;
#245 = PLANE ( 'NONE',  #260 ) ;
#246 = FACE_OUTER_BOUND ( 'NONE', #179, .T. ) ;
#247 = ADVANCED_FACE ( 'NONE', ( #151, #150 ), #112, .T. ) ;
#248 = UNCERTAINTY_MEASURE_WITH_UNIT (LENGTH_MEASURE( 1.000000000000000082E-05 ), #29, 'distance_accuracy_value', 'NONE');
#249 = CARTESIAN_POINT ( 'NONE',  ( 3.019795514491327087E-14, 0.0000000000000000000, 8.649038105676673638 ) ) ;
#250 = CYLINDRICAL_SURFACE ( 'NONE', #5, 0.7499999999999993339 ) ;
#251 = DIRECTION ( 'NONE',  ( -1.000000000000000000, 0.0000000000000000000, 3.469446951953618133E-15 ) ) ;
#252 = CC_DESIGN_PERSON_AND_ORGANIZATION_ASSIGNMENT ( #147, #232, ( #13 ) ) ;
#253 = APPLICATION_CONTEXT ( 'configuration controlled 3d designs of mechanical parts and assemblies' ) ;
#254 = FACE_BOUND ( 'NONE', #136, .T. ) ;
#255 = CC_DESIGN_APPROVAL ( #87, ( #141 ) ) ;
#256 = AXIS2_PLACEMENT_3D ( 'NONE', #111, #89, #8 ) ;
#257 = CONICAL_SURFACE ( 'NONE', #30, 1.499999999999995559, 1.221730476396026388 ) ;
#258 = ORIENTED_EDGE ( 'NONE', *, *, #21, .F. ) ;
#259 = COORDINATED_UNIVERSAL_TIME_OFFSET ( 1, 0, .AHEAD. ) ;
#260 = AXIS2_PLACEMENT_3D ( 'NONE', #82, #57, #160 ) ;
#261 = CALENDAR_DATE ( 2021, 28, 10 ) ;
#262 = ORIENTED_EDGE ( 'NONE', *, *, #244, .F. ) ;
#263 = ORIENTED_EDGE ( 'NONE', *, *, #167, .F. ) ;
ENDSEC;
END-ISO-10303-21;
