ISO-10303-21;
HEADER;
FILE_DESCRIPTION (( 'STEP AP203' ),
    '1' );
FILE_NAME ('962820.step',
    '2021-10-28T09:22:21',
    ( '' ),
    ( '' ),
    'SwSTEP 2.0',
    'SolidWorks 2019',
    '' );
FILE_SCHEMA (( 'CONFIG_CONTROL_DESIGN' ));
ENDSEC;

DATA;
#1 = COORDINATED_UNIVERSAL_TIME_OFFSET ( 1, 0, .AHEAD. ) ;
#2 = SHAPE_DEFINITION_REPRESENTATION ( #259, #186 ) ;
#3 = EDGE_LOOP ( 'NONE', ( #95 ) ) ;
#4 = APPROVAL_ROLE ( '' ) ;
#5 = FACE_OUTER_BOUND ( 'NONE', #19, .T. ) ;
#6 = COORDINATED_UNIVERSAL_TIME_OFFSET ( 1, 0, .AHEAD. ) ;
#7 = AXIS2_PLACEMENT_3D ( 'NONE', #138, #222, #79 ) ;
#8 = ORIENTED_EDGE ( 'NONE', *, *, #73, .T. ) ;
#9 = ORIENTED_EDGE ( 'NONE', *, *, #24, .T. ) ;
#10 = CARTESIAN_POINT ( 'NONE',  ( 6.982962677686266711E-15, 1.124819836996389785E-32, 2.000000000000000000 ) ) ;
#11 = AXIS2_PLACEMENT_3D ( 'NONE', #124, #199, #141 ) ;
#12 = FACE_OUTER_BOUND ( 'NONE', #191, .T. ) ;
#13 = PERSON_AND_ORGANIZATION_ROLE ( 'design_owner' ) ;
#14 = CYLINDRICAL_SURFACE ( 'NONE', #239, 0.7499999999999993339 ) ;
#15 = CARTESIAN_POINT ( 'NONE',  ( 0.0000000000000000000, 0.0000000000000000000, 0.0000000000000000000 ) ) ;
#16 = ORIENTED_EDGE ( 'NONE', *, *, #45, .F. ) ;
#17 = EDGE_LOOP ( 'NONE', ( #9 ) ) ;
#18 = DATE_AND_TIME ( #114, #131 ) ;
#19 = EDGE_LOOP ( 'NONE', ( #56 ) ) ;
#20 = PRODUCT ( '962820', '962820', '', ( #148 ) ) ;
#21 = CC_DESIGN_DATE_AND_TIME_ASSIGNMENT ( #190, #158, ( #206 ) ) ;
#22 = FACE_BOUND ( 'NONE', #59, .T. ) ;
#23 = APPROVAL_DATE_TIME ( #170, #235 ) ;
#24 = EDGE_CURVE ( 'NONE', #212, #212, #83, .T. ) ;
#25 =( GEOMETRIC_REPRESENTATION_CONTEXT ( 3 ) GLOBAL_UNCERTAINTY_ASSIGNED_CONTEXT ( ( #242 ) ) GLOBAL_UNIT_ASSIGNED_CONTEXT ( ( #207, #166, #127 ) ) REPRESENTATION_CONTEXT ( 'NONE', 'WORKASPACE' ) );
#26 = AXIS2_PLACEMENT_3D ( 'NONE', #10, #30, #85 ) ;
#27 = FACE_BOUND ( 'NONE', #241, .T. ) ;
#28 = CONICAL_SURFACE ( 'NONE', #107, 1.499999999999995559, 1.221730476396026388 ) ;
#29 = CC_DESIGN_SECURITY_CLASSIFICATION ( #115, ( #144 ) ) ;
#30 = DIRECTION ( 'NONE',  ( 3.491481338843133355E-15, -1.224646799147353207E-16, 1.000000000000000000 ) ) ;
#31 = FACE_OUTER_BOUND ( 'NONE', #189, .T. ) ;
#32 = CARTESIAN_POINT ( 'NONE',  ( 6.982962677686266711E-15, 0.0000000000000000000, 2.000000000000000000 ) ) ;
#33 = APPROVAL_PERSON_ORGANIZATION ( #150, #261, #223 ) ;
#34 = FACE_OUTER_BOUND ( 'NONE', #205, .T. ) ;
#35 = PRODUCT_RELATED_PRODUCT_CATEGORY ( 'detail', '', ( #20 ) ) ;
#36 = ORIENTED_EDGE ( 'NONE', *, *, #122, .F. ) ;
#37 = CARTESIAN_POINT ( 'NONE',  ( -0.7499999999999845679, 0.0000000000000000000, 4.239230484541387511 ) ) ;
#38 = CIRCLE ( 'NONE', #177, 1.499999999999997558 ) ;
#39 = CIRCLE ( 'NONE', #224, 0.7499999999999994449 ) ;
#40 = CALENDAR_DATE ( 2021, 28, 10 ) ;
#41 = ORIENTED_EDGE ( 'NONE', *, *, #110, .T. ) ;
#42 = DATE_AND_TIME ( #99, #208 ) ;
#43 = EDGE_LOOP ( 'NONE', ( #112 ) ) ;
#44 = CARTESIAN_POINT ( 'NONE',  ( 1.480119412783118023E-14, 0.0000000000000000000, 4.239230484541384847 ) ) ;
#45 = EDGE_CURVE ( 'NONE', #187, #187, #39, .T. ) ;
#46 = APPROVAL_PERSON_ORGANIZATION ( #135, #230, #78 ) ;
#47 = CARTESIAN_POINT ( 'NONE',  ( 3.019795514491327087E-14, 0.0000000000000000000, 8.649038105676673638 ) ) ;
#48 = CYLINDRICAL_SURFACE ( 'NONE', #98, 1.499999999999997780 ) ;
#49 = AXIS2_PLACEMENT_3D ( 'NONE', #162, #254, #123 ) ;
#50 = MANIFOLD_SOLID_BREP ( 'Corps-Déplacer/Copier1[1]', #169 ) ;
#51 = FACE_OUTER_BOUND ( 'NONE', #96, .T. ) ;
#52 = DIRECTION ( 'NONE',  ( -1.000000000000000000, 0.0000000000000000000, 3.491481338843133355E-15 ) ) ;
#53 = DIRECTION ( 'NONE',  ( -3.491481338843133355E-15, 0.0000000000000000000, -1.000000000000000000 ) ) ;
#54 = EDGE_CURVE ( 'NONE', #86, #86, #245, .T. ) ;
#55 = CARTESIAN_POINT ( 'NONE',  ( -1.499999999999967581, 0.0000000000000000000, 8.649038105676678967 ) ) ;
#56 = ORIENTED_EDGE ( 'NONE', *, *, #122, .T. ) ;
#57 = APPROVAL_DATE_TIME ( #42, #261 ) ;
#58 = EDGE_CURVE ( 'NONE', #68, #68, #146, .T. ) ;
#59 = EDGE_LOOP ( 'NONE', ( #193 ) ) ;
#60 = DIRECTION ( 'NONE',  ( 0.0000000000000000000, 1.000000000000000000, 0.0000000000000000000 ) ) ;
#61 = COORDINATED_UNIVERSAL_TIME_OFFSET ( 1, 0, .AHEAD. ) ;
#62 = AXIS2_PLACEMENT_3D ( 'NONE', #256, #226, #140 ) ;
#63 = AXIS2_PLACEMENT_3D ( 'NONE', #72, #260, #165 ) ;
#64 = EDGE_LOOP ( 'NONE', ( #216 ) ) ;
#65 = PLANE ( 'NONE',  #164 ) ;
#66 = CIRCLE ( 'NONE', #211, 0.1499999999999998002 ) ;
#67 = DIRECTION ( 'NONE',  ( -3.491481338843133355E-15, 1.224646799147353207E-16, -1.000000000000000000 ) ) ;
#68 = VERTEX_POINT ( 'NONE', #147 ) ;
#69 = APPLICATION_PROTOCOL_DEFINITION ( 'international standard', 'config_control_design', 1994, #118 ) ;
#70 = CARTESIAN_POINT ( 'NONE',  ( 1.316288464743861212E-13, 1.499999999999995337, 37.69999999999999574 ) ) ;
#71 = EDGE_LOOP ( 'NONE', ( #16 ) ) ;
#72 = CARTESIAN_POINT ( 'NONE',  ( 3.019795514491327087E-14, 0.0000000000000000000, 8.649038105676673638 ) ) ;
#73 = EDGE_CURVE ( 'NONE', #168, #168, #66, .T. ) ;
#74 = LOCAL_TIME ( 11, 22, 21.00000000000000000, #61 ) ;
#75 = ORIENTED_EDGE ( 'NONE', *, *, #81, .T. ) ;
#76 = PERSON_AND_ORGANIZATION ( #84, #93 ) ;
#77 = FACE_OUTER_BOUND ( 'NONE', #17, .T. ) ;
#78 = APPROVAL_ROLE ( '' ) ;
#79 = DIRECTION ( 'NONE',  ( -1.000000000000000000, 0.0000000000000000000, 2.891205793294682172E-15 ) ) ;
#80 = DIRECTION ( 'NONE',  ( -1.000000000000000000, 0.0000000000000000000, 3.469446951953618133E-15 ) ) ;
#81 = EDGE_CURVE ( 'NONE', #108, #108, #236, .T. ) ;
#82 = DIRECTION ( 'NONE',  ( -1.000000000000000000, 0.0000000000000000000, 2.891205793294682172E-15 ) ) ;
#83 = CIRCLE ( 'NONE', #7, 0.1499999999999998002 ) ;
#84 = PERSON ( 'UNSPECIFIED', 'UNSPECIFIED', 'UNSPECIFIED', ('UNSPECIFIED'), ('UNSPECIFIED'), ('UNSPECIFIED') ) ;
#85 = DIRECTION ( 'NONE',  ( -4.275831445896958607E-31, -1.000000000000000000, -1.224646799147353207E-16 ) ) ;
#86 = VERTEX_POINT ( 'NONE', #128 ) ;
#87 = CARTESIAN_POINT ( 'NONE',  ( 0.0000000000000000000, 0.0000000000000000000, 0.0000000000000000000 ) ) ;
#88 = CONICAL_SURFACE ( 'NONE', #49, 1.199999999999999956, 0.7853981633974453924 ) ;
#89 = DIRECTION ( 'NONE',  ( -3.491481338843133355E-15, 0.0000000000000000000, -1.000000000000000000 ) ) ;
#90 = CARTESIAN_POINT ( 'NONE',  ( -0.1499999999999928058, 0.0000000000000000000, 2.000000000000000444 ) ) ;
#91 = ORIENTED_EDGE ( 'NONE', *, *, #45, .T. ) ;
#92 = APPROVAL_STATUS ( 'not_yet_approved' ) ;
#93 = ORGANIZATION ( 'UNSPECIFIED', 'UNSPECIFIED', '' ) ;
#94 = APPLICATION_CONTEXT ( 'configuration controlled 3d designs of mechanical parts and assemblies' ) ;
#95 = ORIENTED_EDGE ( 'NONE', *, *, #81, .F. ) ;
#96 = EDGE_LOOP ( 'NONE', ( #91 ) ) ;
#97 = CARTESIAN_POINT ( 'NONE',  ( 1.906192921252232855E-15, -6.686024735685322183E-17, 0.5459553513993090634 ) ) ;
#98 = AXIS2_PLACEMENT_3D ( 'NONE', #251, #67, #159 ) ;
#99 = CALENDAR_DATE ( 2021, 28, 10 ) ;
#100 = LOCAL_TIME ( 11, 22, 21.00000000000000000, #1 ) ;
#101 = CC_DESIGN_DATE_AND_TIME_ASSIGNMENT ( #18, #219, ( #115 ) ) ;
#102 = CIRCLE ( 'NONE', #195, 1.499999999999999778 ) ;
#103 = DIRECTION ( 'NONE',  ( -3.491481338843133355E-15, 1.224646799147353207E-16, -1.000000000000000000 ) ) ;
#104 = FACE_OUTER_BOUND ( 'NONE', #155, .T. ) ;
#105 = CYLINDRICAL_SURFACE ( 'NONE', #246, 0.1499999999999998834 ) ;
#106 = CARTESIAN_POINT ( 'NONE',  ( 2.566238784049703016E-14, 0.0000000000000000000, 7.349999999999999645 ) ) ;
#107 = AXIS2_PLACEMENT_3D ( 'NONE', #97, #160, #182 ) ;
#108 = VERTEX_POINT ( 'NONE', #232 ) ;
#109 = CARTESIAN_POINT ( 'NONE',  ( 6.982962677686266711E-15, 1.124819836996389785E-32, 2.000000000000000000 ) ) ;
#110 = EDGE_CURVE ( 'NONE', #125, #125, #38, .T. ) ;
#111 = DIRECTION ( 'NONE',  ( 0.0000000000000000000, 0.0000000000000000000, 1.000000000000000000 ) ) ;
#112 = ORIENTED_EDGE ( 'NONE', *, *, #54, .T. ) ;
#113 = PERSON_AND_ORGANIZATION ( #84, #93 ) ;
#114 = CALENDAR_DATE ( 2021, 28, 10 ) ;
#115 = SECURITY_CLASSIFICATION ( '', '', #194 ) ;
#116 = DIRECTION ( 'NONE',  ( -3.491481338843133355E-15, 0.0000000000000000000, -1.000000000000000000 ) ) ;
#117 = PERSON_AND_ORGANIZATION ( #84, #93 ) ;
#118 = APPLICATION_CONTEXT ( 'configuration controlled 3d designs of mechanical parts and assemblies' ) ;
#119 = DIRECTION ( 'NONE',  ( -3.491481338843133355E-15, 0.0000000000000000000, -1.000000000000000000 ) ) ;
#120 = DIRECTION ( 'NONE',  ( 4.275831445896958607E-31, 1.000000000000000000, 1.224646799147353207E-16 ) ) ;
#121 = CC_DESIGN_APPROVAL ( #235, ( #144 ) ) ;
#122 = EDGE_CURVE ( 'NONE', #152, #152, #102, .T. ) ;
#123 = DIRECTION ( 'NONE',  ( 0.0000000000000000000, 1.000000000000000000, 0.0000000000000000000 ) ) ;
#124 = CARTESIAN_POINT ( 'NONE',  ( 1.480119412783118023E-14, 0.0000000000000000000, 4.239230484541384847 ) ) ;
#125 = VERTEX_POINT ( 'NONE', #55 ) ;
#126 = ADVANCED_FACE ( 'NONE', ( #77 ), #196, .F. ) ;
#127 =( NAMED_UNIT ( * ) SI_UNIT ( $, .STERADIAN. ) SOLID_ANGLE_UNIT ( ) );
#128 = CARTESIAN_POINT ( 'NONE',  ( 1.906192921252232116E-16, -0.1499999999999998834, 0.05459553513993088691 ) ) ;
#129 = ADVANCED_FACE ( 'NONE', ( #104 ), #65, .F. ) ;
#130 = ORIENTED_EDGE ( 'NONE', *, *, #54, .F. ) ;
#131 = LOCAL_TIME ( 11, 22, 21.00000000000000000, #154 ) ;
#132 = DIRECTION ( 'NONE',  ( 1.000000000000000000, 0.0000000000000000000, 0.0000000000000000000 ) ) ;
#133 = CC_DESIGN_PERSON_AND_ORGANIZATION_ASSIGNMENT ( #210, #13, ( #20 ) ) ;
#134 = DESIGN_CONTEXT ( 'detailed design', #94, 'design' ) ;
#135 = PERSON_AND_ORGANIZATION ( #84, #93 ) ;
#136 = ORIENTED_EDGE ( 'NONE', *, *, #58, .T. ) ;
#137 = CALENDAR_DATE ( 2021, 28, 10 ) ;
#138 = CARTESIAN_POINT ( 'NONE',  ( 6.982962677686266711E-15, 0.0000000000000000000, 2.000000000000000000 ) ) ;
#139 = COORDINATED_UNIVERSAL_TIME_OFFSET ( 1, 0, .AHEAD. ) ;
#140 = DIRECTION ( 'NONE',  ( 0.0000000000000000000, 1.000000000000000000, 0.0000000000000000000 ) ) ;
#141 = DIRECTION ( 'NONE',  ( 1.000000000000000000, 0.0000000000000000000, -3.469446951953616950E-15 ) ) ;
#142 = ADVANCED_FACE ( 'NONE', ( #22, #51 ), #213, .T. ) ;
#143 = DIRECTION ( 'NONE',  ( -3.491481338843133355E-15, 0.0000000000000000000, -1.000000000000000000 ) ) ;
#144 = PRODUCT_DEFINITION_FORMATION_WITH_SPECIFIED_SOURCE ( 'ANY', '', #20, .NOT_KNOWN. ) ;
#145 = DIRECTION ( 'NONE',  ( -1.000000000000000000, 0.0000000000000000000, 3.469446951953619711E-15 ) ) ;
#146 = CIRCLE ( 'NONE', #62, 1.199999999999999956 ) ;
#147 = CARTESIAN_POINT ( 'NONE',  ( 1.326762908760390423E-13, 1.199999999999995293, 38.00000000000000000 ) ) ;
#148 = MECHANICAL_CONTEXT ( 'NONE', #118, 'mechanical' ) ;
#149 = EDGE_LOOP ( 'NONE', ( #8 ) ) ;
#150 = PERSON_AND_ORGANIZATION ( #84, #93 ) ;
#151 = EDGE_LOOP ( 'NONE', ( #220 ) ) ;
#152 = VERTEX_POINT ( 'NONE', #70 ) ;
#153 = CC_DESIGN_APPROVAL ( #261, ( #206 ) ) ;
#154 = COORDINATED_UNIVERSAL_TIME_OFFSET ( 1, 0, .AHEAD. ) ;
#155 = EDGE_LOOP ( 'NONE', ( #178 ) ) ;
#156 = DIRECTION ( 'NONE',  ( -3.491481338843133355E-15, 1.224646799147353207E-16, -1.000000000000000000 ) ) ;
#157 = CONICAL_SURFACE ( 'NONE', #63, 1.499999999999997558, 0.5235987755982927094 ) ;
#158 = DATE_TIME_ROLE ( 'creation_date' ) ;
#159 = DIRECTION ( 'NONE',  ( 4.275831445896959482E-31, 1.000000000000000000, 1.224646799147353207E-16 ) ) ;
#160 = DIRECTION ( 'NONE',  ( 3.491481338843133355E-15, -1.224646799147353207E-16, 1.000000000000000000 ) ) ;
#161 = ADVANCED_FACE ( 'NONE', ( #227 ), #28, .T. ) ;
#162 = CARTESIAN_POINT ( 'NONE',  ( 1.326762908760390423E-13, -4.653657836759941941E-15, 38.00000000000000000 ) ) ;
#163 = DIRECTION ( 'NONE',  ( -4.814824860968093136E-31, -1.000000000000000000, -1.355252715606881529E-16 ) ) ;
#164 = AXIS2_PLACEMENT_3D ( 'NONE', #252, #231, #120 ) ;
#165 = DIRECTION ( 'NONE',  ( 1.000000000000000000, 0.0000000000000000000, -3.469446951953619711E-15 ) ) ;
#166 =( NAMED_UNIT ( * ) PLANE_ANGLE_UNIT ( ) SI_UNIT ( $, .RADIAN. ) );
#167 = CARTESIAN_POINT ( 'NONE',  ( -0.1499999999999928058, 0.0000000000000000000, 2.000000000000000444 ) ) ;
#168 = VERTEX_POINT ( 'NONE', #167 ) ;
#169 = CLOSED_SHELL ( 'NONE', ( #185, #198, #129, #142, #225, #262, #126 ) ) ;
#170 = DATE_AND_TIME ( #137, #215 ) ;
#171 = APPROVAL_STATUS ( 'not_yet_approved' ) ;
#172 = EDGE_LOOP ( 'NONE', ( #36 ) ) ;
#173 = AXIS2_PLACEMENT_3D ( 'NONE', #228, #103, #163 ) ;
#174 = CALENDAR_DATE ( 2021, 28, 10 ) ;
#175 = FACE_OUTER_BOUND ( 'NONE', #64, .T. ) ;
#176 = AXIS2_PLACEMENT_3D ( 'NONE', #263, #111, #132 ) ;
#177 = AXIS2_PLACEMENT_3D ( 'NONE', #47, #143, #145 ) ;
#178 = ORIENTED_EDGE ( 'NONE', *, *, #58, .F. ) ;
#179 = FACE_OUTER_BOUND ( 'NONE', #172, .T. ) ;
#180 = CC_DESIGN_PERSON_AND_ORGANIZATION_ASSIGNMENT ( #221, #192, ( #144 ) ) ;
#181 = DIRECTION ( 'NONE',  ( -3.491481338843133355E-15, 0.0000000000000000000, -1.000000000000000000 ) ) ;
#182 = DIRECTION ( 'NONE',  ( -5.135813185032644414E-31, -1.000000000000000000, -1.445602896647343601E-16 ) ) ;
#183 = CC_DESIGN_APPROVAL ( #230, ( #115 ) ) ;
#184 = DIRECTION ( 'NONE',  ( -1.000000000000000000, 0.0000000000000000000, 3.491481338843133355E-15 ) ) ;
#185 = ADVANCED_FACE ( 'NONE', ( #175, #5 ), #48, .T. ) ;
#186 = ADVANCED_BREP_SHAPE_REPRESENTATION ( '962820', ( #50, #229, #176 ), #25 ) ;
#187 = VERTEX_POINT ( 'NONE', #37 ) ;
#188 = PERSON_AND_ORGANIZATION_ROLE ( 'classification_officer' ) ;
#189 = EDGE_LOOP ( 'NONE', ( #130 ) ) ;
#190 = DATE_AND_TIME ( #40, #74 ) ;
#191 = EDGE_LOOP ( 'NONE', ( #75 ) ) ;
#192 = PERSON_AND_ORGANIZATION_ROLE ( 'creator' ) ;
#193 = ORIENTED_EDGE ( 'NONE', *, *, #24, .F. ) ;
#194 = SECURITY_CLASSIFICATION_LEVEL ( 'unclassified' ) ;
#195 = AXIS2_PLACEMENT_3D ( 'NONE', #202, #156, #60 ) ;
#196 = PLANE ( 'NONE',  #26 ) ;
#197 = PERSON_AND_ORGANIZATION ( #84, #93 ) ;
#198 = ADVANCED_FACE ( 'NONE', ( #179, #27 ), #88, .T. ) ;
#199 = DIRECTION ( 'NONE',  ( 3.491481338843133355E-15, 0.0000000000000000000, 1.000000000000000000 ) ) ;
#200 = AXIS2_PLACEMENT_3D ( 'NONE', #109, #257, #240 ) ;
#201 = CC_DESIGN_PERSON_AND_ORGANIZATION_ASSIGNMENT ( #113, #243, ( #206 ) ) ;
#202 = CARTESIAN_POINT ( 'NONE',  ( 1.316288464743861212E-13, -4.616918432785521081E-15, 37.69999999999999574 ) ) ;
#203 = FACE_OUTER_BOUND ( 'NONE', #149, .T. ) ;
#204 = ADVANCED_FACE ( 'NONE', ( #203, #31 ), #105, .T. ) ;
#205 = EDGE_LOOP ( 'NONE', ( #41 ) ) ;
#206 = PRODUCT_DEFINITION ( 'UNKNOWN', '', #144, #134 ) ;
#207 =( LENGTH_UNIT ( ) NAMED_UNIT ( * ) SI_UNIT ( .MILLI., .METRE. ) );
#208 = LOCAL_TIME ( 11, 22, 21.00000000000000000, #139 ) ;
#209 = CLOSED_SHELL ( 'NONE', ( #255, #204, #161 ) ) ;
#210 = PERSON_AND_ORGANIZATION ( #84, #93 ) ;
#211 = AXIS2_PLACEMENT_3D ( 'NONE', #32, #116, #82 ) ;
#212 = VERTEX_POINT ( 'NONE', #90 ) ;
#213 = CONICAL_SURFACE ( 'NONE', #11, 0.7499999999999994449, 0.2617993877991428020 ) ;
#214 = APPLICATION_PROTOCOL_DEFINITION ( 'international standard', 'config_control_design', 1994, #94 ) ;
#215 = LOCAL_TIME ( 11, 22, 21.00000000000000000, #6 ) ;
#216 = ORIENTED_EDGE ( 'NONE', *, *, #110, .F. ) ;
#217 = FACE_OUTER_BOUND ( 'NONE', #151, .T. ) ;
#218 = APPROVAL_DATE_TIME ( #249, #230 ) ;
#219 = DATE_TIME_ROLE ( 'classification_date' ) ;
#220 = ORIENTED_EDGE ( 'NONE', *, *, #73, .F. ) ;
#221 = PERSON_AND_ORGANIZATION ( #84, #93 ) ;
#222 = DIRECTION ( 'NONE',  ( -3.491481338843133355E-15, 0.0000000000000000000, -1.000000000000000000 ) ) ;
#223 = APPROVAL_ROLE ( '' ) ;
#224 = AXIS2_PLACEMENT_3D ( 'NONE', #44, #181, #247 ) ;
#225 = ADVANCED_FACE ( 'NONE', ( #237, #12 ), #14, .T. ) ;
#226 = DIRECTION ( 'NONE',  ( -3.491481338843133355E-15, 1.224646799147353207E-16, -1.000000000000000000 ) ) ;
#227 = FACE_OUTER_BOUND ( 'NONE', #43, .T. ) ;
#228 = CARTESIAN_POINT ( 'NONE',  ( 1.906192921252232855E-16, -6.686024735685312630E-18, 0.05459553513993090773 ) ) ;
#229 = MANIFOLD_SOLID_BREP ( 'Corps-Déplacer/Copier1[2]', #209 ) ;
#230 = APPROVAL ( #92, 'UNSPECIFIED' ) ;
#231 = DIRECTION ( 'NONE',  ( -3.491481338843133355E-15, 1.224646799147353207E-16, -1.000000000000000000 ) ) ;
#232 = CARTESIAN_POINT ( 'NONE',  ( -0.7499999999999734657, 0.0000000000000000000, 7.350000000000002309 ) ) ;
#233 = FACE_BOUND ( 'NONE', #3, .T. ) ;
#234 = APPROVAL_STATUS ( 'not_yet_approved' ) ;
#235 = APPROVAL ( #171, 'UNSPECIFIED' ) ;
#236 = CIRCLE ( 'NONE', #253, 0.7499999999999991118 ) ;
#237 = FACE_OUTER_BOUND ( 'NONE', #71, .T. ) ;
#238 = CC_DESIGN_PERSON_AND_ORGANIZATION_ASSIGNMENT ( #76, #244, ( #144 ) ) ;
#239 = AXIS2_PLACEMENT_3D ( 'NONE', #15, #89, #52 ) ;
#240 = DIRECTION ( 'NONE',  ( -4.275831445896958607E-31, -1.000000000000000000, -1.224646799147353207E-16 ) ) ;
#241 = EDGE_LOOP ( 'NONE', ( #136 ) ) ;
#242 = UNCERTAINTY_MEASURE_WITH_UNIT (LENGTH_MEASURE( 1.000000000000000082E-05 ), #207, 'distance_accuracy_value', 'NONE');
#243 = PERSON_AND_ORGANIZATION_ROLE ( 'creator' ) ;
#244 = PERSON_AND_ORGANIZATION_ROLE ( 'design_supplier' ) ;
#245 = CIRCLE ( 'NONE', #173, 0.1499999999999998834 ) ;
#246 = AXIS2_PLACEMENT_3D ( 'NONE', #87, #53, #184 ) ;
#247 = DIRECTION ( 'NONE',  ( -1.000000000000000000, 0.0000000000000000000, 3.469446951953616950E-15 ) ) ;
#248 = APPROVAL_PERSON_ORGANIZATION ( #117, #235, #4 ) ;
#249 = DATE_AND_TIME ( #174, #100 ) ;
#250 = CC_DESIGN_PERSON_AND_ORGANIZATION_ASSIGNMENT ( #197, #188, ( #115 ) ) ;
#251 = CARTESIAN_POINT ( 'NONE',  ( 0.0000000000000000000, 0.0000000000000000000, 0.0000000000000000000 ) ) ;
#252 = CARTESIAN_POINT ( 'NONE',  ( 1.326762908760390423E-13, 8.998558695971077224E-33, 38.00000000000000000 ) ) ;
#253 = AXIS2_PLACEMENT_3D ( 'NONE', #106, #119, #80 ) ;
#254 = DIRECTION ( 'NONE',  ( -3.491481338843133355E-15, 1.224646799147353207E-16, -1.000000000000000000 ) ) ;
#255 = ADVANCED_FACE ( 'NONE', ( #217 ), #258, .T. ) ;
#256 = CARTESIAN_POINT ( 'NONE',  ( 1.326762908760390423E-13, -4.653657836759941941E-15, 38.00000000000000000 ) ) ;
#257 = DIRECTION ( 'NONE',  ( 3.491481338843133355E-15, -1.224646799147353207E-16, 1.000000000000000000 ) ) ;
#258 = PLANE ( 'NONE',  #200 ) ;
#259 = PRODUCT_DEFINITION_SHAPE ( 'NONE', 'NONE',  #206 ) ;
#260 = DIRECTION ( 'NONE',  ( 3.491481338843133355E-15, 0.0000000000000000000, 1.000000000000000000 ) ) ;
#261 = APPROVAL ( #234, 'UNSPECIFIED' ) ;
#262 = ADVANCED_FACE ( 'NONE', ( #233, #34 ), #157, .T. ) ;
#263 = CARTESIAN_POINT ( 'NONE',  ( 0.0000000000000000000, 0.0000000000000000000, 0.0000000000000000000 ) ) ;
ENDSEC;
END-ISO-10303-21;
