ISO-10303-21;
HEADER;
FILE_DESCRIPTION (( 'STEP AP203' ),
    '1' );
FILE_NAME ('962819.step',
    '2021-10-28T09:22:21',
    ( '' ),
    ( '' ),
    'SwSTEP 2.0',
    'SolidWorks 2019',
    '' );
FILE_SCHEMA (( 'CONFIG_CONTROL_DESIGN' ));
ENDSEC;

DATA;
#1 = FACE_OUTER_BOUND ( 'NONE', #206, .T. ) ;
#2 = MECHANICAL_CONTEXT ( 'NONE', #252, 'mechanical' ) ;
#3 = PERSON_AND_ORGANIZATION ( #210, #4 ) ;
#4 = ORGANIZATION ( 'UNSPECIFIED', 'UNSPECIFIED', '' ) ;
#5 = CARTESIAN_POINT ( 'NONE',  ( 0.0000000000000000000, 0.0000000000000000000, 0.0000000000000000000 ) ) ;
#6 = ADVANCED_BREP_SHAPE_REPRESENTATION ( '962819', ( #138, #51, #231 ), #64 ) ;
#7 = EDGE_LOOP ( 'NONE', ( #226 ) ) ;
#8 = EDGE_LOOP ( 'NONE', ( #45 ) ) ;
#9 = AXIS2_PLACEMENT_3D ( 'NONE', #142, #58, #202 ) ;
#10 = AXIS2_PLACEMENT_3D ( 'NONE', #14, #160, #59 ) ;
#11 = ORIENTED_EDGE ( 'NONE', *, *, #249, .F. ) ;
#12 = DIRECTION ( 'NONE',  ( -4.275831445896958607E-31, -1.000000000000000000, -1.224646799147353207E-16 ) ) ;
#13 = DATE_TIME_ROLE ( 'classification_date' ) ;
#14 = CARTESIAN_POINT ( 'NONE',  ( 0.0000000000000000000, 0.0000000000000000000, 0.0000000000000000000 ) ) ;
#15 = FACE_BOUND ( 'NONE', #92, .T. ) ;
#16 = CIRCLE ( 'NONE', #136, 0.7499999999999995559 ) ;
#17 = DIRECTION ( 'NONE',  ( 3.491481338843133355E-15, -1.224646799147353207E-16, 1.000000000000000000 ) ) ;
#18 = FACE_OUTER_BOUND ( 'NONE', #67, .T. ) ;
#19 = CARTESIAN_POINT ( 'NONE',  ( -1.499999999999967581, 0.0000000000000000000, 8.649038105676678967 ) ) ;
#20 = VERTEX_POINT ( 'NONE', #36 ) ;
#21 = DESIGN_CONTEXT ( 'detailed design', #242, 'design' ) ;
#22 = DIRECTION ( 'NONE',  ( -1.000000000000000000, 0.0000000000000000000, 3.491481338843133355E-15 ) ) ;
#23 = CC_DESIGN_DATE_AND_TIME_ASSIGNMENT ( #68, #118, ( #263 ) ) ;
#24 = PERSON_AND_ORGANIZATION ( #210, #4 ) ;
#25 = ORIENTED_EDGE ( 'NONE', *, *, #249, .T. ) ;
#26 = EDGE_CURVE ( 'NONE', #20, #20, #103, .T. ) ;
#27 = CALENDAR_DATE ( 2021, 28, 10 ) ;
#28 = CARTESIAN_POINT ( 'NONE',  ( 6.982962677686266711E-15, 1.124819836996389785E-32, 2.000000000000000000 ) ) ;
#29 = SHAPE_DEFINITION_REPRESENTATION ( #93, #6 ) ;
#30 = FACE_OUTER_BOUND ( 'NONE', #44, .T. ) ;
#31 = CALENDAR_DATE ( 2021, 28, 10 ) ;
#32 = DIRECTION ( 'NONE',  ( 4.275831445896959482E-31, 1.000000000000000000, 1.224646799147353207E-16 ) ) ;
#33 = PLANE ( 'NONE',  #164 ) ;
#34 = CARTESIAN_POINT ( 'NONE',  ( 2.566238784049703016E-14, 0.0000000000000000000, 7.349999999999999645 ) ) ;
#35 = CARTESIAN_POINT ( 'NONE',  ( -0.1249999999999927697, 0.0000000000000000000, 2.000000000000000444 ) ) ;
#36 = CARTESIAN_POINT ( 'NONE',  ( 1.316288464743861212E-13, 1.499999999999995337, 37.69999999999999574 ) ) ;
#37 = AXIS2_PLACEMENT_3D ( 'NONE', #116, #224, #62 ) ;
#38 = PRODUCT_DEFINITION_FORMATION_WITH_SPECIFIED_SOURCE ( 'ANY', '', #200, .NOT_KNOWN. ) ;
#39 = APPROVAL_PERSON_ORGANIZATION ( #162, #213, #237 ) ;
#40 = CYLINDRICAL_SURFACE ( 'NONE', #203, 0.7499999999999993339 ) ;
#41 = ORIENTED_EDGE ( 'NONE', *, *, #165, .F. ) ;
#42 = CONICAL_SURFACE ( 'NONE', #250, 1.499999999999997558, 0.5235987755982927094 ) ;
#43 = CC_DESIGN_PERSON_AND_ORGANIZATION_ASSIGNMENT ( #3, #110, ( #200 ) ) ;
#44 = EDGE_LOOP ( 'NONE', ( #144 ) ) ;
#45 = ORIENTED_EDGE ( 'NONE', *, *, #137, .T. ) ;
#46 = APPROVAL_DATE_TIME ( #163, #134 ) ;
#47 = ADVANCED_FACE ( 'NONE', ( #241, #102 ), #156, .T. ) ;
#48 = EDGE_LOOP ( 'NONE', ( #11 ) ) ;
#49 = CALENDAR_DATE ( 2021, 28, 10 ) ;
#50 = DIRECTION ( 'NONE',  ( 3.491481338843133355E-15, 0.0000000000000000000, 1.000000000000000000 ) ) ;
#51 = MANIFOLD_SOLID_BREP ( 'Corps-Déplacer/Copier1[2]', #166 ) ;
#52 = SECURITY_CLASSIFICATION_LEVEL ( 'unclassified' ) ;
#53 = DIRECTION ( 'NONE',  ( -4.275831445896958607E-31, -1.000000000000000000, -1.224646799147353207E-16 ) ) ;
#54 = PERSON_AND_ORGANIZATION ( #210, #4 ) ;
#55 = AXIS2_PLACEMENT_3D ( 'NONE', #129, #234, #32 ) ;
#56 = DIRECTION ( 'NONE',  ( 3.491481338843133355E-15, -1.224646799147353207E-16, 1.000000000000000000 ) ) ;
#57 = DIRECTION ( 'NONE',  ( -3.491481338843133355E-15, 0.0000000000000000000, -1.000000000000000000 ) ) ;
#58 = DIRECTION ( 'NONE',  ( -3.491481338843133355E-15, 0.0000000000000000000, -1.000000000000000000 ) ) ;
#59 = DIRECTION ( 'NONE',  ( -1.000000000000000000, 0.0000000000000000000, 3.491481338843133355E-15 ) ) ;
#60 = ADVANCED_FACE ( 'NONE', ( #89, #152 ), #42, .T. ) ;
#61 = EDGE_CURVE ( 'NONE', #97, #97, #130, .T. ) ;
#62 = DIRECTION ( 'NONE',  ( -3.851859888774473458E-31, -1.000000000000000000, -1.084202172485504927E-16 ) ) ;
#63 = AXIS2_PLACEMENT_3D ( 'NONE', #254, #238, #172 ) ;
#64 =( GEOMETRIC_REPRESENTATION_CONTEXT ( 3 ) GLOBAL_UNCERTAINTY_ASSIGNED_CONTEXT ( ( #141 ) ) GLOBAL_UNIT_ASSIGNED_CONTEXT ( ( #117, #161, #197 ) ) REPRESENTATION_CONTEXT ( 'NONE', 'WORKASPACE' ) );
#65 = EDGE_LOOP ( 'NONE', ( #121 ) ) ;
#66 = CALENDAR_DATE ( 2021, 28, 10 ) ;
#67 = EDGE_LOOP ( 'NONE', ( #183 ) ) ;
#68 = DATE_AND_TIME ( #31, #69 ) ;
#69 = LOCAL_TIME ( 11, 22, 21.00000000000000000, #233 ) ;
#70 = DATE_AND_TIME ( #66, #155 ) ;
#71 = FACE_OUTER_BOUND ( 'NONE', #124, .T. ) ;
#72 = ORIENTED_EDGE ( 'NONE', *, *, #228, .F. ) ;
#73 = EDGE_LOOP ( 'NONE', ( #25 ) ) ;
#74 = DIRECTION ( 'NONE',  ( 3.491481338843133355E-15, 0.0000000000000000000, 1.000000000000000000 ) ) ;
#75 = CARTESIAN_POINT ( 'NONE',  ( -0.7499999999999734657, 0.0000000000000000000, 7.350000000000002309 ) ) ;
#76 = EDGE_CURVE ( 'NONE', #182, #182, #16, .T. ) ;
#77 = VERTEX_POINT ( 'NONE', #19 ) ;
#78 = APPLICATION_PROTOCOL_DEFINITION ( 'international standard', 'config_control_design', 1994, #242 ) ;
#79 = CONICAL_SURFACE ( 'NONE', #167, 1.199999999999999956, 0.7853981633974453924 ) ;
#80 = PERSON_AND_ORGANIZATION ( #210, #4 ) ;
#81 = APPROVAL_STATUS ( 'not_yet_approved' ) ;
#82 = EDGE_LOOP ( 'NONE', ( #170 ) ) ;
#83 = AXIS2_PLACEMENT_3D ( 'NONE', #157, #50, #133 ) ;
#84 = ORIENTED_EDGE ( 'NONE', *, *, #76, .F. ) ;
#85 = ORIENTED_EDGE ( 'NONE', *, *, #228, .T. ) ;
#86 = CC_DESIGN_PERSON_AND_ORGANIZATION_ASSIGNMENT ( #54, #209, ( #38 ) ) ;
#87 = COORDINATED_UNIVERSAL_TIME_OFFSET ( 1, 0, .AHEAD. ) ;
#88 = LOCAL_TIME ( 11, 22, 21.00000000000000000, #229 ) ;
#89 = FACE_BOUND ( 'NONE', #205, .T. ) ;
#90 = FACE_BOUND ( 'NONE', #146, .T. ) ;
#91 = CARTESIAN_POINT ( 'NONE',  ( 1.326762908760390423E-13, -4.653657836759941941E-15, 38.00000000000000000 ) ) ;
#92 = EDGE_LOOP ( 'NONE', ( #122 ) ) ;
#93 = PRODUCT_DEFINITION_SHAPE ( 'NONE', 'NONE',  #263 ) ;
#94 = DIRECTION ( 'NONE',  ( -3.491481338843133355E-15, 1.224646799147353207E-16, -1.000000000000000000 ) ) ;
#95 = VERTEX_POINT ( 'NONE', #113 ) ;
#96 = CARTESIAN_POINT ( 'NONE',  ( 0.0000000000000000000, 0.0000000000000000000, 0.0000000000000000000 ) ) ;
#97 = VERTEX_POINT ( 'NONE', #196 ) ;
#98 = CARTESIAN_POINT ( 'NONE',  ( 1.326762908760390423E-13, 8.998558695971077224E-33, 38.00000000000000000 ) ) ;
#99 = CIRCLE ( 'NONE', #108, 1.199999999999999956 ) ;
#100 = EDGE_LOOP ( 'NONE', ( #41 ) ) ;
#101 = APPROVAL_STATUS ( 'not_yet_approved' ) ;
#102 = FACE_OUTER_BOUND ( 'NONE', #65, .T. ) ;
#103 = CIRCLE ( 'NONE', #63, 1.499999999999999778 ) ;
#104 = FACE_OUTER_BOUND ( 'NONE', #48, .T. ) ;
#105 = APPROVAL_ROLE ( '' ) ;
#106 = DIRECTION ( 'NONE',  ( -1.000000000000000000, 0.0000000000000000000, 3.469446951953620894E-15 ) ) ;
#107 = DIRECTION ( 'NONE',  ( 0.0000000000000000000, 1.000000000000000000, 0.0000000000000000000 ) ) ;
#108 = AXIS2_PLACEMENT_3D ( 'NONE', #261, #174, #107 ) ;
#109 = CARTESIAN_POINT ( 'NONE',  ( 1.906192921252232855E-15, -6.686024735685322183E-17, 0.5459553513993090634 ) ) ;
#110 = PERSON_AND_ORGANIZATION_ROLE ( 'design_owner' ) ;
#111 = ADVANCED_FACE ( 'NONE', ( #256 ), #218, .T. ) ;
#112 = CC_DESIGN_PERSON_AND_ORGANIZATION_ASSIGNMENT ( #185, #148, ( #263 ) ) ;
#113 = CARTESIAN_POINT ( 'NONE',  ( 1.588494101043527544E-16, -0.1249999999999999445, 0.04549627928327575760 ) ) ;
#114 = CIRCLE ( 'NONE', #239, 0.7499999999999991118 ) ;
#115 = CIRCLE ( 'NONE', #9, 0.1249999999999997641 ) ;
#116 = CARTESIAN_POINT ( 'NONE',  ( 1.588494101043528037E-16, -5.571687279737768742E-18, 0.04549627928327577148 ) ) ;
#117 =( LENGTH_UNIT ( ) NAMED_UNIT ( * ) SI_UNIT ( .MILLI., .METRE. ) );
#118 = DATE_TIME_ROLE ( 'creation_date' ) ;
#119 = EDGE_LOOP ( 'NONE', ( #72 ) ) ;
#120 = ADVANCED_FACE ( 'NONE', ( #217 ), #123, .T. ) ;
#121 = ORIENTED_EDGE ( 'NONE', *, *, #26, .T. ) ;
#122 = ORIENTED_EDGE ( 'NONE', *, *, #165, .T. ) ;
#123 = CONICAL_SURFACE ( 'NONE', #193, 1.499999999999995559, 1.221730476396026388 ) ;
#124 = EDGE_LOOP ( 'NONE', ( #85 ) ) ;
#125 = DATE_AND_TIME ( #49, #220 ) ;
#126 = CARTESIAN_POINT ( 'NONE',  ( 3.019795514491327087E-14, 0.0000000000000000000, 8.649038105676673638 ) ) ;
#127 = ADVANCED_FACE ( 'NONE', ( #18, #15 ), #79, .T. ) ;
#128 = PERSON_AND_ORGANIZATION_ROLE ( 'classification_officer' ) ;
#129 = CARTESIAN_POINT ( 'NONE',  ( 0.0000000000000000000, 0.0000000000000000000, 0.0000000000000000000 ) ) ;
#130 = CIRCLE ( 'NONE', #246, 0.1249999999999997641 ) ;
#131 = DIRECTION ( 'NONE',  ( -5.135813185032644414E-31, -1.000000000000000000, -1.445602896647343601E-16 ) ) ;
#132 = DIRECTION ( 'NONE',  ( 3.491481338843133355E-15, -1.224646799147353207E-16, 1.000000000000000000 ) ) ;
#133 = DIRECTION ( 'NONE',  ( 1.000000000000000000, 0.0000000000000000000, -3.469446951953616161E-15 ) ) ;
#134 = APPROVAL ( #101, 'UNSPECIFIED' ) ;
#135 = CLOSED_SHELL ( 'NONE', ( #47, #127, #255, #177, #257, #60, #150 ) ) ;
#136 = AXIS2_PLACEMENT_3D ( 'NONE', #191, #194, #171 ) ;
#137 = EDGE_CURVE ( 'NONE', #77, #77, #230, .T. ) ;
#138 = MANIFOLD_SOLID_BREP ( 'Corps-Déplacer/Copier1[1]', #135 ) ;
#139 = FACE_OUTER_BOUND ( 'NONE', #100, .T. ) ;
#140 = CC_DESIGN_PERSON_AND_ORGANIZATION_ASSIGNMENT ( #24, #190, ( #38 ) ) ;
#141 = UNCERTAINTY_MEASURE_WITH_UNIT (LENGTH_MEASURE( 1.000000000000000082E-05 ), #117, 'distance_accuracy_value', 'NONE');
#142 = CARTESIAN_POINT ( 'NONE',  ( 6.982962677686266711E-15, 0.0000000000000000000, 2.000000000000000000 ) ) ;
#143 = CARTESIAN_POINT ( 'NONE',  ( -0.7499999999999844569, 0.0000000000000000000, 4.332531754730611695 ) ) ;
#144 = ORIENTED_EDGE ( 'NONE', *, *, #61, .T. ) ;
#145 = PERSON_AND_ORGANIZATION ( #210, #4 ) ;
#146 = EDGE_LOOP ( 'NONE', ( #259 ) ) ;
#147 = AXIS2_PLACEMENT_3D ( 'NONE', #214, #176, #258 ) ;
#148 = PERSON_AND_ORGANIZATION_ROLE ( 'creator' ) ;
#149 = ORIENTED_EDGE ( 'NONE', *, *, #195, .F. ) ;
#150 = ADVANCED_FACE ( 'NONE', ( #30 ), #33, .F. ) ;
#151 = APPROVAL_DATE_TIME ( #70, #213 ) ;
#152 = FACE_OUTER_BOUND ( 'NONE', #8, .T. ) ;
#153 = DIRECTION ( 'NONE',  ( 0.0000000000000000000, 1.000000000000000000, 0.0000000000000000000 ) ) ;
#154 = CIRCLE ( 'NONE', #37, 0.1249999999999999445 ) ;
#155 = LOCAL_TIME ( 11, 22, 21.00000000000000000, #253 ) ;
#156 = CYLINDRICAL_SURFACE ( 'NONE', #55, 1.499999999999997780 ) ;
#157 = CARTESIAN_POINT ( 'NONE',  ( 1.512695377158721843E-14, 0.0000000000000000000, 4.332531754730609030 ) ) ;
#158 = CARTESIAN_POINT ( 'NONE',  ( 1.326762908760390423E-13, 1.199999999999995293, 38.00000000000000000 ) ) ;
#159 = VERTEX_POINT ( 'NONE', #75 ) ;
#160 = DIRECTION ( 'NONE',  ( -3.491481338843133355E-15, 0.0000000000000000000, -1.000000000000000000 ) ) ;
#161 =( NAMED_UNIT ( * ) PLANE_ANGLE_UNIT ( ) SI_UNIT ( $, .RADIAN. ) );
#162 = PERSON_AND_ORGANIZATION ( #210, #4 ) ;
#163 = DATE_AND_TIME ( #212, #88 ) ;
#164 = AXIS2_PLACEMENT_3D ( 'NONE', #28, #17, #12 ) ;
#165 = EDGE_CURVE ( 'NONE', #262, #262, #99, .T. ) ;
#166 = CLOSED_SHELL ( 'NONE', ( #111, #208, #120 ) ) ;
#167 = AXIS2_PLACEMENT_3D ( 'NONE', #91, #94, #153 ) ;
#168 = APPROVAL_PERSON_ORGANIZATION ( #80, #134, #169 ) ;
#169 = APPROVAL_ROLE ( '' ) ;
#170 = ORIENTED_EDGE ( 'NONE', *, *, #137, .F. ) ;
#171 = DIRECTION ( 'NONE',  ( -1.000000000000000000, 0.0000000000000000000, 3.469446951953616161E-15 ) ) ;
#172 = DIRECTION ( 'NONE',  ( 0.0000000000000000000, 1.000000000000000000, 0.0000000000000000000 ) ) ;
#173 = SECURITY_CLASSIFICATION ( '', '', #52 ) ;
#174 = DIRECTION ( 'NONE',  ( -3.491481338843133355E-15, 1.224646799147353207E-16, -1.000000000000000000 ) ) ;
#175 = CC_DESIGN_SECURITY_CLASSIFICATION ( #173, ( #38 ) ) ;
#176 = DIRECTION ( 'NONE',  ( -3.491481338843133355E-15, 0.0000000000000000000, -1.000000000000000000 ) ) ;
#177 = ADVANCED_FACE ( 'NONE', ( #90, #219 ), #198, .T. ) ;
#178 = AXIS2_PLACEMENT_3D ( 'NONE', #98, #223, #180 ) ;
#179 = DIRECTION ( 'NONE',  ( 0.0000000000000000000, 0.0000000000000000000, 1.000000000000000000 ) ) ;
#180 = DIRECTION ( 'NONE',  ( 4.275831445896958607E-31, 1.000000000000000000, 1.224646799147353207E-16 ) ) ;
#181 = CC_DESIGN_APPROVAL ( #213, ( #263 ) ) ;
#182 = VERTEX_POINT ( 'NONE', #143 ) ;
#183 = ORIENTED_EDGE ( 'NONE', *, *, #26, .F. ) ;
#184 = CC_DESIGN_APPROVAL ( #243, ( #38 ) ) ;
#185 = PERSON_AND_ORGANIZATION ( #210, #4 ) ;
#186 = COORDINATED_UNIVERSAL_TIME_OFFSET ( 1, 0, .AHEAD. ) ;
#187 = CC_DESIGN_PERSON_AND_ORGANIZATION_ASSIGNMENT ( #145, #128, ( #173 ) ) ;
#188 = DIRECTION ( 'NONE',  ( -1.000000000000000000, 0.0000000000000000000, 3.469446951953618133E-15 ) ) ;
#189 = CYLINDRICAL_SURFACE ( 'NONE', #10, 0.1249999999999999445 ) ;
#190 = PERSON_AND_ORGANIZATION_ROLE ( 'design_supplier' ) ;
#191 = CARTESIAN_POINT ( 'NONE',  ( 1.512695377158721843E-14, 0.0000000000000000000, 4.332531754730609030 ) ) ;
#192 = DIRECTION ( 'NONE',  ( 1.000000000000000000, 0.0000000000000000000, -3.469446951953619711E-15 ) ) ;
#193 = AXIS2_PLACEMENT_3D ( 'NONE', #109, #56, #131 ) ;
#194 = DIRECTION ( 'NONE',  ( -3.491481338843133355E-15, 0.0000000000000000000, -1.000000000000000000 ) ) ;
#195 = EDGE_CURVE ( 'NONE', #159, #159, #114, .T. ) ;
#196 = CARTESIAN_POINT ( 'NONE',  ( -0.1249999999999927697, 0.0000000000000000000, 2.000000000000000444 ) ) ;
#197 =( NAMED_UNIT ( * ) SI_UNIT ( $, .STERADIAN. ) SOLID_ANGLE_UNIT ( ) );
#198 = CONICAL_SURFACE ( 'NONE', #83, 0.7499999999999995559, 0.2617993877991428020 ) ;
#199 = FACE_OUTER_BOUND ( 'NONE', #7, .T. ) ;
#200 = PRODUCT ( '962819', '962819', '', ( #2 ) ) ;
#201 = DIRECTION ( 'NONE',  ( 1.000000000000000000, 0.0000000000000000000, 0.0000000000000000000 ) ) ;
#202 = DIRECTION ( 'NONE',  ( -1.000000000000000000, 0.0000000000000000000, 3.469446951953620894E-15 ) ) ;
#203 = AXIS2_PLACEMENT_3D ( 'NONE', #5, #225, #22 ) ;
#204 = PERSON_AND_ORGANIZATION ( #210, #4 ) ;
#205 = EDGE_LOOP ( 'NONE', ( #149 ) ) ;
#206 = EDGE_LOOP ( 'NONE', ( #84 ) ) ;
#207 = AXIS2_PLACEMENT_3D ( 'NONE', #236, #132, #53 ) ;
#208 = ADVANCED_FACE ( 'NONE', ( #71, #104 ), #189, .T. ) ;
#209 = PERSON_AND_ORGANIZATION_ROLE ( 'creator' ) ;
#210 = PERSON ( 'UNSPECIFIED', 'UNSPECIFIED', 'UNSPECIFIED', ('UNSPECIFIED'), ('UNSPECIFIED'), ('UNSPECIFIED') ) ;
#211 = DIRECTION ( 'NONE',  ( -3.491481338843133355E-15, 0.0000000000000000000, -1.000000000000000000 ) ) ;
#212 = CALENDAR_DATE ( 2021, 28, 10 ) ;
#213 = APPROVAL ( #248, 'UNSPECIFIED' ) ;
#214 = CARTESIAN_POINT ( 'NONE',  ( 3.019795514491327087E-14, 0.0000000000000000000, 8.649038105676673638 ) ) ;
#215 = DATE_AND_TIME ( #27, #251 ) ;
#216 = CC_DESIGN_DATE_AND_TIME_ASSIGNMENT ( #215, #13, ( #173 ) ) ;
#217 = FACE_OUTER_BOUND ( 'NONE', #73, .T. ) ;
#218 = PLANE ( 'NONE',  #207 ) ;
#219 = FACE_OUTER_BOUND ( 'NONE', #227, .T. ) ;
#220 = LOCAL_TIME ( 11, 22, 21.00000000000000000, #87 ) ;
#221 = APPLICATION_PROTOCOL_DEFINITION ( 'international standard', 'config_control_design', 1994, #252 ) ;
#222 = VERTEX_POINT ( 'NONE', #35 ) ;
#223 = DIRECTION ( 'NONE',  ( -3.491481338843133355E-15, 1.224646799147353207E-16, -1.000000000000000000 ) ) ;
#224 = DIRECTION ( 'NONE',  ( -3.491481338843133355E-15, 1.224646799147353207E-16, -1.000000000000000000 ) ) ;
#225 = DIRECTION ( 'NONE',  ( -3.491481338843133355E-15, 0.0000000000000000000, -1.000000000000000000 ) ) ;
#226 = ORIENTED_EDGE ( 'NONE', *, *, #195, .T. ) ;
#227 = EDGE_LOOP ( 'NONE', ( #232 ) ) ;
#228 = EDGE_CURVE ( 'NONE', #222, #222, #115, .T. ) ;
#229 = COORDINATED_UNIVERSAL_TIME_OFFSET ( 1, 0, .AHEAD. ) ;
#230 = CIRCLE ( 'NONE', #147, 1.499999999999997558 ) ;
#231 = AXIS2_PLACEMENT_3D ( 'NONE', #96, #179, #201 ) ;
#232 = ORIENTED_EDGE ( 'NONE', *, *, #76, .T. ) ;
#233 = COORDINATED_UNIVERSAL_TIME_OFFSET ( 1, 0, .AHEAD. ) ;
#234 = DIRECTION ( 'NONE',  ( -3.491481338843133355E-15, 1.224646799147353207E-16, -1.000000000000000000 ) ) ;
#235 = APPROVAL_DATE_TIME ( #125, #243 ) ;
#236 = CARTESIAN_POINT ( 'NONE',  ( 6.982962677686266711E-15, 1.124819836996389785E-32, 2.000000000000000000 ) ) ;
#237 = APPROVAL_ROLE ( '' ) ;
#238 = DIRECTION ( 'NONE',  ( -3.491481338843133355E-15, 1.224646799147353207E-16, -1.000000000000000000 ) ) ;
#239 = AXIS2_PLACEMENT_3D ( 'NONE', #34, #211, #188 ) ;
#240 = CARTESIAN_POINT ( 'NONE',  ( 6.982962677686266711E-15, 0.0000000000000000000, 2.000000000000000000 ) ) ;
#241 = FACE_OUTER_BOUND ( 'NONE', #82, .T. ) ;
#242 = APPLICATION_CONTEXT ( 'configuration controlled 3d designs of mechanical parts and assemblies' ) ;
#243 = APPROVAL ( #81, 'UNSPECIFIED' ) ;
#244 = CC_DESIGN_APPROVAL ( #134, ( #173 ) ) ;
#245 = PLANE ( 'NONE',  #178 ) ;
#246 = AXIS2_PLACEMENT_3D ( 'NONE', #240, #57, #106 ) ;
#247 = APPROVAL_PERSON_ORGANIZATION ( #204, #243, #105 ) ;
#248 = APPROVAL_STATUS ( 'not_yet_approved' ) ;
#249 = EDGE_CURVE ( 'NONE', #95, #95, #154, .T. ) ;
#250 = AXIS2_PLACEMENT_3D ( 'NONE', #126, #74, #192 ) ;
#251 = LOCAL_TIME ( 11, 22, 21.00000000000000000, #186 ) ;
#252 = APPLICATION_CONTEXT ( 'configuration controlled 3d designs of mechanical parts and assemblies' ) ;
#253 = COORDINATED_UNIVERSAL_TIME_OFFSET ( 1, 0, .AHEAD. ) ;
#254 = CARTESIAN_POINT ( 'NONE',  ( 1.316288464743861212E-13, -4.616918432785521081E-15, 37.69999999999999574 ) ) ;
#255 = ADVANCED_FACE ( 'NONE', ( #139 ), #245, .F. ) ;
#256 = FACE_OUTER_BOUND ( 'NONE', #119, .T. ) ;
#257 = ADVANCED_FACE ( 'NONE', ( #1, #199 ), #40, .T. ) ;
#258 = DIRECTION ( 'NONE',  ( -1.000000000000000000, 0.0000000000000000000, 3.469446951953619711E-15 ) ) ;
#259 = ORIENTED_EDGE ( 'NONE', *, *, #61, .F. ) ;
#260 = PRODUCT_RELATED_PRODUCT_CATEGORY ( 'detail', '', ( #200 ) ) ;
#261 = CARTESIAN_POINT ( 'NONE',  ( 1.326762908760390423E-13, -4.653657836759941941E-15, 38.00000000000000000 ) ) ;
#262 = VERTEX_POINT ( 'NONE', #158 ) ;
#263 = PRODUCT_DEFINITION ( 'UNKNOWN', '', #38, #21 ) ;
ENDSEC;
END-ISO-10303-21;
