ISO-10303-21;
HEADER;
FILE_DESCRIPTION (( 'STEP AP203' ),
    '1' );
FILE_NAME ('962818.step',
    '2021-10-28T09:22:20',
    ( '' ),
    ( '' ),
    'SwSTEP 2.0',
    'SolidWorks 2019',
    '' );
FILE_SCHEMA (( 'CONFIG_CONTROL_DESIGN' ));
ENDSEC;

DATA;
#1 = PERSON_AND_ORGANIZATION ( #208, #109 ) ;
#2 = CARTESIAN_POINT ( 'NONE',  ( -0.09999999999999456546, 0.0000000000000000000, 1.500000000000000222 ) ) ;
#3 = CARTESIAN_POINT ( 'NONE',  ( -0.09999999999999456546, 0.0000000000000000000, 1.500000000000000222 ) ) ;
#4 = LOCAL_TIME ( 11, 22, 20.00000000000000000, #26 ) ;
#5 = APPROVAL_DATE_TIME ( #229, #232 ) ;
#6 = CALENDAR_DATE ( 2021, 28, 10 ) ;
#7 = ORIENTED_EDGE ( 'NONE', *, *, #89, .F. ) ;
#8 = AXIS2_PLACEMENT_3D ( 'NONE', #17, #82, #86 ) ;
#9 = CALENDAR_DATE ( 2021, 28, 10 ) ;
#10 = COORDINATED_UNIVERSAL_TIME_OFFSET ( 1, 0, .AHEAD. ) ;
#11 = DIRECTION ( 'NONE',  ( 3.491481338843133355E-15, -1.224646799147353207E-16, 1.000000000000000000 ) ) ;
#12 = DIRECTION ( 'NONE',  ( 0.0000000000000000000, 1.000000000000000000, 0.0000000000000000000 ) ) ;
#13 = DIRECTION ( 'NONE',  ( 0.0000000000000000000, 1.000000000000000000, 0.0000000000000000000 ) ) ;
#14 = CC_DESIGN_PERSON_AND_ORGANIZATION_ASSIGNMENT ( #128, #193, ( #246 ) ) ;
#15 = CARTESIAN_POINT ( 'NONE',  ( 1.370697274592168995E-14, 0.0000000000000000000, 3.925833024919833658 ) ) ;
#16 = FACE_OUTER_BOUND ( 'NONE', #47, .T. ) ;
#17 = CARTESIAN_POINT ( 'NONE',  ( 5.237222008264698455E-15, 1.124819836996389785E-32, 1.499999999999999556 ) ) ;
#18 = APPLICATION_PROTOCOL_DEFINITION ( 'international standard', 'config_control_design', 1994, #57 ) ;
#19 = VERTEX_POINT ( 'NONE', #2 ) ;
#20 = APPLICATION_PROTOCOL_DEFINITION ( 'international standard', 'config_control_design', 1994, #103 ) ;
#21 = ADVANCED_FACE ( 'NONE', ( #153, #115 ), #253, .T. ) ;
#22 = CC_DESIGN_PERSON_AND_ORGANIZATION_ASSIGNMENT ( #231, #174, ( #246 ) ) ;
#23 = DATE_AND_TIME ( #6, #4 ) ;
#24 = EDGE_LOOP ( 'NONE', ( #172 ) ) ;
#25 = AXIS2_PLACEMENT_3D ( 'NONE', #188, #141, #162 ) ;
#26 = COORDINATED_UNIVERSAL_TIME_OFFSET ( 1, 0, .AHEAD. ) ;
#27 = ORIENTED_EDGE ( 'NONE', *, *, #37, .T. ) ;
#28 = PERSON_AND_ORGANIZATION ( #208, #109 ) ;
#29 = ORIENTED_EDGE ( 'NONE', *, *, #152, .T. ) ;
#30 = DIRECTION ( 'NONE',  ( 4.275831445896958607E-31, 1.000000000000000000, 1.224646799147353207E-16 ) ) ;
#31 = PLANE ( 'NONE',  #55 ) ;
#32 = FACE_OUTER_BOUND ( 'NONE', #61, .T. ) ;
#33 = ADVANCED_FACE ( 'NONE', ( #203, #178 ), #79, .T. ) ;
#34 = CARTESIAN_POINT ( 'NONE',  ( 1.326762908760390423E-13, -4.653657836759941941E-15, 38.00000000000000000 ) ) ;
#35 = EDGE_LOOP ( 'NONE', ( #70 ) ) ;
#36 = FACE_OUTER_BOUND ( 'NONE', #24, .T. ) ;
#37 = EDGE_CURVE ( 'NONE', #207, #207, #167, .T. ) ;
#38 = CONICAL_SURFACE ( 'NONE', #122, 1.199999999999999956, 0.7853981633974453924 ) ;
#39 = CARTESIAN_POINT ( 'NONE',  ( 0.0000000000000000000, 0.0000000000000000000, 0.0000000000000000000 ) ) ;
#40 =( GEOMETRIC_REPRESENTATION_CONTEXT ( 3 ) GLOBAL_UNCERTAINTY_ASSIGNED_CONTEXT ( ( #156 ) ) GLOBAL_UNIT_ASSIGNED_CONTEXT ( ( #62, #142, #225 ) ) REPRESENTATION_CONTEXT ( 'NONE', 'WORKASPACE' ) );
#41 = APPROVAL_PERSON_ORGANIZATION ( #28, #204, #48 ) ;
#42 = DIRECTION ( 'NONE',  ( -1.000000000000000000, 0.0000000000000000000, 3.469446951953623261E-15 ) ) ;
#43 = MANIFOLD_SOLID_BREP ( 'Corps-Déplacer/Copier1[2]', #138 ) ;
#44 = FACE_OUTER_BOUND ( 'NONE', #74, .T. ) ;
#45 = CIRCLE ( 'NONE', #60, 1.499999999999997558 ) ;
#46 = APPROVAL_DATE_TIME ( #90, #248 ) ;
#47 = EDGE_LOOP ( 'NONE', ( #107 ) ) ;
#48 = APPROVAL_ROLE ( '' ) ;
#49 = EDGE_LOOP ( 'NONE', ( #196 ) ) ;
#50 = DATE_AND_TIME ( #9, #187 ) ;
#51 = EDGE_CURVE ( 'NONE', #66, #66, #236, .T. ) ;
#52 = FACE_OUTER_BOUND ( 'NONE', #215, .T. ) ;
#53 = PRODUCT_DEFINITION_SHAPE ( 'NONE', 'NONE',  #120 ) ;
#54 = AXIS2_PLACEMENT_3D ( 'NONE', #237, #158, #12 ) ;
#55 = AXIS2_PLACEMENT_3D ( 'NONE', #216, #96, #30 ) ;
#56 = CARTESIAN_POINT ( 'NONE',  ( 2.827764040854954122E-14, 0.0000000000000000000, 8.099038105676671151 ) ) ;
#57 = APPLICATION_CONTEXT ( 'configuration controlled 3d designs of mechanical parts and assemblies' ) ;
#58 = FACE_BOUND ( 'NONE', #149, .T. ) ;
#59 = CARTESIAN_POINT ( 'NONE',  ( 0.0000000000000000000, 0.0000000000000000000, 0.0000000000000000000 ) ) ;
#60 = AXIS2_PLACEMENT_3D ( 'NONE', #56, #161, #223 ) ;
#61 = EDGE_LOOP ( 'NONE', ( #147 ) ) ;
#62 =( LENGTH_UNIT ( ) NAMED_UNIT ( * ) SI_UNIT ( .MILLI., .METRE. ) );
#63 = EDGE_CURVE ( 'NONE', #226, #226, #45, .T. ) ;
#64 = FACE_OUTER_BOUND ( 'NONE', #73, .T. ) ;
#65 = ADVANCED_FACE ( 'NONE', ( #197 ), #77, .F. ) ;
#66 = VERTEX_POINT ( 'NONE', #249 ) ;
#67 = VERTEX_POINT ( 'NONE', #263 ) ;
#68 = PERSON_AND_ORGANIZATION ( #208, #109 ) ;
#69 = AXIS2_PLACEMENT_3D ( 'NONE', #59, #240, #177 ) ;
#70 = ORIENTED_EDGE ( 'NONE', *, *, #200, .F. ) ;
#71 = CC_DESIGN_APPROVAL ( #248, ( #120 ) ) ;
#72 = DATE_TIME_ROLE ( 'creation_date' ) ;
#73 = EDGE_LOOP ( 'NONE', ( #211 ) ) ;
#74 = EDGE_LOOP ( 'NONE', ( #27 ) ) ;
#75 = APPROVAL_PERSON_ORGANIZATION ( #213, #232, #189 ) ;
#76 = ORIENTED_EDGE ( 'NONE', *, *, #200, .T. ) ;
#77 = PLANE ( 'NONE',  #175 ) ;
#78 = CARTESIAN_POINT ( 'NONE',  ( 5.237222008264698455E-15, 1.124819836996389785E-32, 1.499999999999999556 ) ) ;
#79 = CYLINDRICAL_SURFACE ( 'NONE', #69, 0.09999999999999992228 ) ;
#80 = DIRECTION ( 'NONE',  ( -1.000000000000000000, 0.0000000000000000000, 4.336808689942026413E-15 ) ) ;
#81 = DIRECTION ( 'NONE',  ( 0.0000000000000000000, 1.000000000000000000, 0.0000000000000000000 ) ) ;
#82 = DIRECTION ( 'NONE',  ( 3.491481338843133355E-15, -1.224646799147353207E-16, 1.000000000000000000 ) ) ;
#83 = CC_DESIGN_PERSON_AND_ORGANIZATION_ASSIGNMENT ( #68, #146, ( #120 ) ) ;
#84 = PLANE ( 'NONE',  #8 ) ;
#85 = AXIS2_PLACEMENT_3D ( 'NONE', #247, #166, #102 ) ;
#86 = DIRECTION ( 'NONE',  ( -4.275831445896958607E-31, -1.000000000000000000, -1.224646799147353207E-16 ) ) ;
#87 = CARTESIAN_POINT ( 'NONE',  ( 1.270795280834819028E-16, -0.09999999999999992228, 0.03639702342662051726 ) ) ;
#88 = EDGE_LOOP ( 'NONE', ( #252 ) ) ;
#89 = EDGE_CURVE ( 'NONE', #67, #67, #134, .T. ) ;
#90 = DATE_AND_TIME ( #195, #228 ) ;
#91 = APPROVAL_ROLE ( '' ) ;
#92 = SECURITY_CLASSIFICATION_LEVEL ( 'unclassified' ) ;
#93 = APPROVAL_DATE_TIME ( #50, #204 ) ;
#94 = EDGE_LOOP ( 'NONE', ( #29 ) ) ;
#95 = CC_DESIGN_SECURITY_CLASSIFICATION ( #157, ( #246 ) ) ;
#96 = DIRECTION ( 'NONE',  ( -3.491481338843133355E-15, 1.224646799147353207E-16, -1.000000000000000000 ) ) ;
#97 = FACE_OUTER_BOUND ( 'NONE', #199, .T. ) ;
#98 = CARTESIAN_POINT ( 'NONE',  ( 5.237222008264699244E-15, 0.0000000000000000000, 1.499999999999999778 ) ) ;
#99 = AXIS2_PLACEMENT_3D ( 'NONE', #114, #198, #261 ) ;
#100 = DIRECTION ( 'NONE',  ( -3.491481338843133355E-15, 1.224646799147353207E-16, -1.000000000000000000 ) ) ;
#101 = DIRECTION ( 'NONE',  ( -3.491481338843133355E-15, 1.224646799147353207E-16, -1.000000000000000000 ) ) ;
#102 = DIRECTION ( 'NONE',  ( -4.814824860968093136E-31, -1.000000000000000000, -1.355252715606881529E-16 ) ) ;
#103 = APPLICATION_CONTEXT ( 'configuration controlled 3d designs of mechanical parts and assemblies' ) ;
#104 = VERTEX_POINT ( 'NONE', #87 ) ;
#105 = MECHANICAL_CONTEXT ( 'NONE', #103, 'mechanical' ) ;
#106 = SHAPE_DEFINITION_REPRESENTATION ( #53, #160 ) ;
#107 = ORIENTED_EDGE ( 'NONE', *, *, #63, .T. ) ;
#108 = DATE_TIME_ROLE ( 'classification_date' ) ;
#109 = ORGANIZATION ( 'UNSPECIFIED', 'UNSPECIFIED', '' ) ;
#110 = ORIENTED_EDGE ( 'NONE', *, *, #51, .F. ) ;
#111 = ADVANCED_FACE ( 'NONE', ( #58, #16 ), #168, .T. ) ;
#112 = APPROVAL_STATUS ( 'not_yet_approved' ) ;
#113 = ORIENTED_EDGE ( 'NONE', *, *, #152, .F. ) ;
#114 = CARTESIAN_POINT ( 'NONE',  ( 0.0000000000000000000, 0.0000000000000000000, 0.0000000000000000000 ) ) ;
#115 = FACE_OUTER_BOUND ( 'NONE', #49, .T. ) ;
#116 = FACE_BOUND ( 'NONE', #235, .T. ) ;
#117 = AXIS2_PLACEMENT_3D ( 'NONE', #39, #144, #165 ) ;
#118 = ADVANCED_FACE ( 'NONE', ( #52 ), #206, .T. ) ;
#119 = DIRECTION ( 'NONE',  ( 3.491481338843133355E-15, -1.224646799147353207E-16, 1.000000000000000000 ) ) ;
#120 = PRODUCT_DEFINITION ( 'UNKNOWN', '', #246, #180 ) ;
#121 = PERSON_AND_ORGANIZATION ( #208, #109 ) ;
#122 = AXIS2_PLACEMENT_3D ( 'NONE', #34, #101, #81 ) ;
#123 = AXIS2_PLACEMENT_3D ( 'NONE', #98, #159, #80 ) ;
#124 = MANIFOLD_SOLID_BREP ( 'Corps-Déplacer/Copier1[1]', #220 ) ;
#125 = CARTESIAN_POINT ( 'NONE',  ( -1.499999999999969358, 0.0000000000000000000, 8.099038105676676480 ) ) ;
#126 = ADVANCED_FACE ( 'NONE', ( #201 ), #31, .F. ) ;
#127 = ADVANCED_FACE ( 'NONE', ( #97, #221 ), #219, .T. ) ;
#128 = PERSON_AND_ORGANIZATION ( #208, #109 ) ;
#129 = COORDINATED_UNIVERSAL_TIME_OFFSET ( 1, 0, .AHEAD. ) ;
#130 = AXIS2_PLACEMENT_3D ( 'NONE', #164, #241, #183 ) ;
#131 = PERSON_AND_ORGANIZATION_ROLE ( 'classification_officer' ) ;
#132 = ORIENTED_EDGE ( 'NONE', *, *, #250, .F. ) ;
#133 = DIRECTION ( 'NONE',  ( 3.491481338843133355E-15, 0.0000000000000000000, 1.000000000000000000 ) ) ;
#134 = CIRCLE ( 'NONE', #254, 1.199999999999999956 ) ;
#135 = CARTESIAN_POINT ( 'NONE',  ( 1.370697274592168995E-14, 0.0000000000000000000, 3.925833024919833658 ) ) ;
#136 = DIRECTION ( 'NONE',  ( -5.135813185032644414E-31, -1.000000000000000000, -1.445602896647343601E-16 ) ) ;
#137 = PRODUCT ( '962818', '962818', '', ( #105 ) ) ;
#138 = CLOSED_SHELL ( 'NONE', ( #218, #33, #118 ) ) ;
#139 = CIRCLE ( 'NONE', #85, 0.09999999999999992228 ) ;
#140 = DIRECTION ( 'NONE',  ( 1.000000000000000000, 0.0000000000000000000, -3.469446951953616950E-15 ) ) ;
#141 = DIRECTION ( 'NONE',  ( 0.0000000000000000000, 0.0000000000000000000, 1.000000000000000000 ) ) ;
#142 =( NAMED_UNIT ( * ) PLANE_ANGLE_UNIT ( ) SI_UNIT ( $, .RADIAN. ) );
#143 = DIRECTION ( 'NONE',  ( -3.491481338843133355E-15, 0.0000000000000000000, -1.000000000000000000 ) ) ;
#144 = DIRECTION ( 'NONE',  ( -3.491481338843133355E-15, 1.224646799147353207E-16, -1.000000000000000000 ) ) ;
#145 = AXIS2_PLACEMENT_3D ( 'NONE', #135, #179, #140 ) ;
#146 = PERSON_AND_ORGANIZATION_ROLE ( 'creator' ) ;
#147 = ORIENTED_EDGE ( 'NONE', *, *, #37, .F. ) ;
#148 = APPROVAL_STATUS ( 'not_yet_approved' ) ;
#149 = EDGE_LOOP ( 'NONE', ( #132 ) ) ;
#150 = AXIS2_PLACEMENT_3D ( 'NONE', #181, #133, #259 ) ;
#151 = CC_DESIGN_PERSON_AND_ORGANIZATION_ASSIGNMENT ( #234, #131, ( #157 ) ) ;
#152 = EDGE_CURVE ( 'NONE', #19, #19, #244, .T. ) ;
#153 = FACE_BOUND ( 'NONE', #170, .T. ) ;
#154 = ORIENTED_EDGE ( 'NONE', *, *, #89, .T. ) ;
#155 = CIRCLE ( 'NONE', #130, 0.09999999999999979738 ) ;
#156 = UNCERTAINTY_MEASURE_WITH_UNIT (LENGTH_MEASURE( 1.000000000000000082E-05 ), #62, 'distance_accuracy_value', 'NONE');
#157 = SECURITY_CLASSIFICATION ( '', '', #92 ) ;
#158 = DIRECTION ( 'NONE',  ( -3.491481338843133355E-15, 1.224646799147353207E-16, -1.000000000000000000 ) ) ;
#159 = DIRECTION ( 'NONE',  ( -3.491481338843133355E-15, 0.0000000000000000000, -1.000000000000000000 ) ) ;
#160 = ADVANCED_BREP_SHAPE_REPRESENTATION ( '962818', ( #124, #43, #25 ), #40 ) ;
#161 = DIRECTION ( 'NONE',  ( -3.491481338843133355E-15, 0.0000000000000000000, -1.000000000000000000 ) ) ;
#162 = DIRECTION ( 'NONE',  ( 1.000000000000000000, 0.0000000000000000000, 0.0000000000000000000 ) ) ;
#163 = CARTESIAN_POINT ( 'NONE',  ( 2.374207310413330682E-14, 0.0000000000000000000, 6.800000000000000711 ) ) ;
#164 = CARTESIAN_POINT ( 'NONE',  ( 5.237222008264699244E-15, 0.0000000000000000000, 1.499999999999999778 ) ) ;
#165 = DIRECTION ( 'NONE',  ( 4.275831445896959482E-31, 1.000000000000000000, 1.224646799147353207E-16 ) ) ;
#166 = DIRECTION ( 'NONE',  ( -3.491481338843133355E-15, 1.224646799147353207E-16, -1.000000000000000000 ) ) ;
#167 = CIRCLE ( 'NONE', #54, 1.499999999999999778 ) ;
#168 = CONICAL_SURFACE ( 'NONE', #150, 1.499999999999997558, 0.5235987755982942637 ) ;
#169 = CALENDAR_DATE ( 2021, 28, 10 ) ;
#170 = EDGE_LOOP ( 'NONE', ( #113 ) ) ;
#171 = DATE_AND_TIME ( #169, #176 ) ;
#172 = ORIENTED_EDGE ( 'NONE', *, *, #230, .F. ) ;
#173 = ADVANCED_FACE ( 'NONE', ( #32, #116 ), #38, .T. ) ;
#174 = PERSON_AND_ORGANIZATION_ROLE ( 'design_supplier' ) ;
#175 = AXIS2_PLACEMENT_3D ( 'NONE', #78, #11, #238 ) ;
#176 = LOCAL_TIME ( 11, 22, 20.00000000000000000, #256 ) ;
#177 = DIRECTION ( 'NONE',  ( -1.000000000000000000, 0.0000000000000000000, 3.491481338843133750E-15 ) ) ;
#178 = FACE_OUTER_BOUND ( 'NONE', #35, .T. ) ;
#179 = DIRECTION ( 'NONE',  ( 3.491481338843133355E-15, 0.0000000000000000000, 1.000000000000000000 ) ) ;
#180 = DESIGN_CONTEXT ( 'detailed design', #57, 'design' ) ;
#181 = CARTESIAN_POINT ( 'NONE',  ( 2.827764040854954122E-14, 0.0000000000000000000, 8.099038105676671151 ) ) ;
#182 = CC_DESIGN_DATE_AND_TIME_ASSIGNMENT ( #171, #108, ( #157 ) ) ;
#183 = DIRECTION ( 'NONE',  ( -1.000000000000000000, 0.0000000000000000000, 4.336808689942026413E-15 ) ) ;
#184 = AXIS2_PLACEMENT_3D ( 'NONE', #163, #143, #42 ) ;
#185 = CYLINDRICAL_SURFACE ( 'NONE', #117, 1.499999999999997780 ) ;
#186 = VERTEX_POINT ( 'NONE', #224 ) ;
#187 = LOCAL_TIME ( 11, 22, 20.00000000000000000, #10 ) ;
#188 = CARTESIAN_POINT ( 'NONE',  ( 0.0000000000000000000, 0.0000000000000000000, 0.0000000000000000000 ) ) ;
#189 = APPROVAL_ROLE ( '' ) ;
#190 = ORIENTED_EDGE ( 'NONE', *, *, #230, .T. ) ;
#191 = APPROVAL_PERSON_ORGANIZATION ( #1, #248, #91 ) ;
#192 = CALENDAR_DATE ( 2021, 28, 10 ) ;
#193 = PERSON_AND_ORGANIZATION_ROLE ( 'creator' ) ;
#194 = EDGE_LOOP ( 'NONE', ( #7 ) ) ;
#195 = CALENDAR_DATE ( 2021, 28, 10 ) ;
#196 = ORIENTED_EDGE ( 'NONE', *, *, #51, .T. ) ;
#197 = FACE_OUTER_BOUND ( 'NONE', #94, .T. ) ;
#198 = DIRECTION ( 'NONE',  ( -3.491481338843133355E-15, 0.0000000000000000000, -1.000000000000000000 ) ) ;
#199 = EDGE_LOOP ( 'NONE', ( #110 ) ) ;
#200 = EDGE_CURVE ( 'NONE', #104, #104, #139, .T. ) ;
#201 = FACE_OUTER_BOUND ( 'NONE', #194, .T. ) ;
#202 = AXIS2_PLACEMENT_3D ( 'NONE', #239, #119, #136 ) ;
#203 = FACE_OUTER_BOUND ( 'NONE', #260, .T. ) ;
#204 = APPROVAL ( #148, 'UNSPECIFIED' ) ;
#205 = PERSON_AND_ORGANIZATION_ROLE ( 'design_owner' ) ;
#206 = CONICAL_SURFACE ( 'NONE', #202, 1.499999999999995559, 1.221730476396026388 ) ;
#207 = VERTEX_POINT ( 'NONE', #243 ) ;
#208 = PERSON ( 'UNSPECIFIED', 'UNSPECIFIED', 'UNSPECIFIED', ('UNSPECIFIED'), ('UNSPECIFIED'), ('UNSPECIFIED') ) ;
#209 = CC_DESIGN_APPROVAL ( #204, ( #246 ) ) ;
#210 = APPROVAL_STATUS ( 'not_yet_approved' ) ;
#211 = ORIENTED_EDGE ( 'NONE', *, *, #63, .F. ) ;
#212 = AXIS2_PLACEMENT_3D ( 'NONE', #15, #258, #262 ) ;
#213 = PERSON_AND_ORGANIZATION ( #208, #109 ) ;
#214 = CC_DESIGN_PERSON_AND_ORGANIZATION_ASSIGNMENT ( #121, #205, ( #137 ) ) ;
#215 = EDGE_LOOP ( 'NONE', ( #76 ) ) ;
#216 = CARTESIAN_POINT ( 'NONE',  ( 1.326762908760390423E-13, 8.998558695971077224E-33, 38.00000000000000000 ) ) ;
#217 = CARTESIAN_POINT ( 'NONE',  ( 1.326762908760390423E-13, -4.653657836759941941E-15, 38.00000000000000000 ) ) ;
#218 = ADVANCED_FACE ( 'NONE', ( #36 ), #84, .T. ) ;
#219 = CYLINDRICAL_SURFACE ( 'NONE', #99, 0.7499999999999986677 ) ;
#220 = CLOSED_SHELL ( 'NONE', ( #245, #173, #126, #21, #127, #111, #65 ) ) ;
#221 = FACE_OUTER_BOUND ( 'NONE', #88, .T. ) ;
#222 = LOCAL_TIME ( 11, 22, 20.00000000000000000, #129 ) ;
#223 = DIRECTION ( 'NONE',  ( -1.000000000000000000, 0.0000000000000000000, 3.469446951953619711E-15 ) ) ;
#224 = CARTESIAN_POINT ( 'NONE',  ( -0.7499999999999742428, 0.0000000000000000000, 6.800000000000003375 ) ) ;
#225 =( NAMED_UNIT ( * ) SI_UNIT ( $, .STERADIAN. ) SOLID_ANGLE_UNIT ( ) );
#226 = VERTEX_POINT ( 'NONE', #125 ) ;
#227 = PRODUCT_RELATED_PRODUCT_CATEGORY ( 'detail', '', ( #137 ) ) ;
#228 = LOCAL_TIME ( 11, 22, 20.00000000000000000, #251 ) ;
#229 = DATE_AND_TIME ( #192, #222 ) ;
#230 = EDGE_CURVE ( 'NONE', #242, #242, #155, .T. ) ;
#231 = PERSON_AND_ORGANIZATION ( #208, #109 ) ;
#232 = APPROVAL ( #112, 'UNSPECIFIED' ) ;
#233 = CIRCLE ( 'NONE', #184, 0.7499999999999980016 ) ;
#234 = PERSON_AND_ORGANIZATION ( #208, #109 ) ;
#235 = EDGE_LOOP ( 'NONE', ( #154 ) ) ;
#236 = CIRCLE ( 'NONE', #212, 0.7499999999999994449 ) ;
#237 = CARTESIAN_POINT ( 'NONE',  ( 1.316288464743861212E-13, -4.616918432785521081E-15, 37.69999999999999574 ) ) ;
#238 = DIRECTION ( 'NONE',  ( -4.275831445896958607E-31, -1.000000000000000000, -1.224646799147353207E-16 ) ) ;
#239 = CARTESIAN_POINT ( 'NONE',  ( 1.906192921252232855E-15, -6.686024735685322183E-17, 0.5459553513993090634 ) ) ;
#240 = DIRECTION ( 'NONE',  ( -3.491481338843133355E-15, 0.0000000000000000000, -1.000000000000000000 ) ) ;
#241 = DIRECTION ( 'NONE',  ( -3.491481338843133355E-15, 0.0000000000000000000, -1.000000000000000000 ) ) ;
#242 = VERTEX_POINT ( 'NONE', #3 ) ;
#243 = CARTESIAN_POINT ( 'NONE',  ( 1.316288464743861212E-13, 1.499999999999995337, 37.69999999999999574 ) ) ;
#244 = CIRCLE ( 'NONE', #123, 0.09999999999999979738 ) ;
#245 = ADVANCED_FACE ( 'NONE', ( #64, #44 ), #185, .T. ) ;
#246 = PRODUCT_DEFINITION_FORMATION_WITH_SPECIFIED_SOURCE ( 'ANY', '', #137, .NOT_KNOWN. ) ;
#247 = CARTESIAN_POINT ( 'NONE',  ( 1.270795280834819521E-16, -4.457349823790200203E-18, 0.03639702342662053114 ) ) ;
#248 = APPROVAL ( #210, 'UNSPECIFIED' ) ;
#249 = CARTESIAN_POINT ( 'NONE',  ( -0.7499999999999857891, 0.0000000000000000000, 3.925833024919836323 ) ) ;
#250 = EDGE_CURVE ( 'NONE', #186, #186, #233, .T. ) ;
#251 = COORDINATED_UNIVERSAL_TIME_OFFSET ( 1, 0, .AHEAD. ) ;
#252 = ORIENTED_EDGE ( 'NONE', *, *, #250, .T. ) ;
#253 = CONICAL_SURFACE ( 'NONE', #145, 0.7499999999999994449, 0.2617993877991427465 ) ;
#254 = AXIS2_PLACEMENT_3D ( 'NONE', #217, #100, #13 ) ;
#255 = CC_DESIGN_APPROVAL ( #232, ( #157 ) ) ;
#256 = COORDINATED_UNIVERSAL_TIME_OFFSET ( 1, 0, .AHEAD. ) ;
#257 = CC_DESIGN_DATE_AND_TIME_ASSIGNMENT ( #23, #72, ( #120 ) ) ;
#258 = DIRECTION ( 'NONE',  ( -3.491481338843133355E-15, 0.0000000000000000000, -1.000000000000000000 ) ) ;
#259 = DIRECTION ( 'NONE',  ( 1.000000000000000000, 0.0000000000000000000, -3.469446951953619711E-15 ) ) ;
#260 = EDGE_LOOP ( 'NONE', ( #190 ) ) ;
#261 = DIRECTION ( 'NONE',  ( -1.000000000000000000, 0.0000000000000000000, 3.491481338843133750E-15 ) ) ;
#262 = DIRECTION ( 'NONE',  ( -1.000000000000000000, 0.0000000000000000000, 3.469446951953616950E-15 ) ) ;
#263 = CARTESIAN_POINT ( 'NONE',  ( 1.326762908760390423E-13, 1.199999999999995293, 38.00000000000000000 ) ) ;
ENDSEC;
END-ISO-10303-21;
