ISO-10303-21;
HEADER;
FILE_DESCRIPTION (( 'STEP AP203' ),
    '1' );
FILE_NAME ('962817.step',
    '2021-10-28T09:22:19',
    ( '' ),
    ( '' ),
    'SwSTEP 2.0',
    'SolidWorks 2019',
    '' );
FILE_SCHEMA (( 'CONFIG_CONTROL_DESIGN' ));
ENDSEC;

DATA;
#1 = EDGE_CURVE ( 'NONE', #150, #150, #167, .T. ) ;
#2 = DIRECTION ( 'NONE',  ( -3.491481338843133355E-15, 0.0000000000000000000, -1.000000000000000000 ) ) ;
#3 = DIRECTION ( 'NONE',  ( -3.491481338843133355E-15, 1.224646799147353207E-16, -1.000000000000000000 ) ) ;
#4 = ORIENTED_EDGE ( 'NONE', *, *, #242, .F. ) ;
#5 = FACE_OUTER_BOUND ( 'NONE', #55, .T. ) ;
#6 = CARTESIAN_POINT ( 'NONE',  ( -0.7499999999999840128, 0.0000000000000000000, 4.019134295109051180 ) ) ;
#7 = CIRCLE ( 'NONE', #123, 1.499999999999999778 ) ;
#8 = AXIS2_PLACEMENT_3D ( 'NONE', #72, #62, #119 ) ;
#9 = CIRCLE ( 'NONE', #37, 0.07499999999999976130 ) ;
#10 = VERTEX_POINT ( 'NONE', #144 ) ;
#11 = FACE_OUTER_BOUND ( 'NONE', #180, .T. ) ;
#12 = DATE_AND_TIME ( #173, #147 ) ;
#13 = EDGE_LOOP ( 'NONE', ( #69 ) ) ;
#14 = CIRCLE ( 'NONE', #194, 0.7499999999999980016 ) ;
#15 = CC_DESIGN_APPROVAL ( #208, ( #81 ) ) ;
#16 = CALENDAR_DATE ( 2021, 28, 10 ) ;
#17 = PERSON_AND_ORGANIZATION_ROLE ( 'creator' ) ;
#18 = AXIS2_PLACEMENT_3D ( 'NONE', #117, #143, #77 ) ;
#19 = FACE_OUTER_BOUND ( 'NONE', #52, .T. ) ;
#20 = CYLINDRICAL_SURFACE ( 'NONE', #233, 1.499999999999997780 ) ;
#21 = UNCERTAINTY_MEASURE_WITH_UNIT (LENGTH_MEASURE( 1.000000000000000082E-05 ), #43, 'distance_accuracy_value', 'NONE');
#22 = CARTESIAN_POINT ( 'NONE',  ( 1.326762908760390423E-13, 8.998558695971077224E-33, 38.00000000000000000 ) ) ;
#23 = FACE_OUTER_BOUND ( 'NONE', #13, .T. ) ;
#24 = ADVANCED_FACE ( 'NONE', ( #5 ), #200, .T. ) ;
#25 = FACE_OUTER_BOUND ( 'NONE', #213, .T. ) ;
#26 = DIRECTION ( 'NONE',  ( 4.275831445896958607E-31, 1.000000000000000000, 1.224646799147353207E-16 ) ) ;
#27 = DIRECTION ( 'NONE',  ( 1.000000000000000000, 0.0000000000000000000, 0.0000000000000000000 ) ) ;
#28 = VERTEX_POINT ( 'NONE', #6 ) ;
#29 = DIRECTION ( 'NONE',  ( 0.0000000000000000000, 1.000000000000000000, 0.0000000000000000000 ) ) ;
#30 = DIRECTION ( 'NONE',  ( -3.491481338843133355E-15, 0.0000000000000000000, -1.000000000000000000 ) ) ;
#31 = CC_DESIGN_SECURITY_CLASSIFICATION ( #90, ( #81 ) ) ;
#32 = COORDINATED_UNIVERSAL_TIME_OFFSET ( 1, 0, .AHEAD. ) ;
#33 = APPROVAL_DATE_TIME ( #257, #118 ) ;
#34 = ORIENTED_EDGE ( 'NONE', *, *, #1, .T. ) ;
#35 = FACE_BOUND ( 'NONE', #174, .T. ) ;
#36 = CIRCLE ( 'NONE', #254, 0.7499999999999980016 ) ;
#37 = AXIS2_PLACEMENT_3D ( 'NONE', #99, #30, #166 ) ;
#38 = DIRECTION ( 'NONE',  ( -1.000000000000000000, 0.0000000000000000000, 3.469446951953623261E-15 ) ) ;
#39 = CARTESIAN_POINT ( 'NONE',  ( 5.237222008264698455E-15, 1.124819836996389785E-32, 1.499999999999999556 ) ) ;
#40 = ORIENTED_EDGE ( 'NONE', *, *, #154, .F. ) ;
#41 = AXIS2_PLACEMENT_3D ( 'NONE', #178, #3, #140 ) ;
#42 = CARTESIAN_POINT ( 'NONE',  ( 5.237222008264698455E-15, 0.0000000000000000000, 1.499999999999999556 ) ) ;
#43 =( LENGTH_UNIT ( ) NAMED_UNIT ( * ) SI_UNIT ( .MILLI., .METRE. ) );
#44 = PRODUCT_DEFINITION_SHAPE ( 'NONE', 'NONE',  #215 ) ;
#45 = CARTESIAN_POINT ( 'NONE',  ( 0.0000000000000000000, 0.0000000000000000000, 0.0000000000000000000 ) ) ;
#46 =( NAMED_UNIT ( * ) SI_UNIT ( $, .STERADIAN. ) SOLID_ANGLE_UNIT ( ) );
#47 = CC_DESIGN_PERSON_AND_ORGANIZATION_ASSIGNMENT ( #124, #65, ( #238 ) ) ;
#48 = DIRECTION ( 'NONE',  ( 3.491481338843133355E-15, -1.224646799147353207E-16, 1.000000000000000000 ) ) ;
#49 = PERSON_AND_ORGANIZATION_ROLE ( 'design_supplier' ) ;
#50 = ORIENTED_EDGE ( 'NONE', *, *, #106, .T. ) ;
#51 = DATE_AND_TIME ( #152, #190 ) ;
#52 = EDGE_LOOP ( 'NONE', ( #34 ) ) ;
#53 = APPROVAL_STATUS ( 'not_yet_approved' ) ;
#54 = APPROVAL_DATE_TIME ( #12, #208 ) ;
#55 = EDGE_LOOP ( 'NONE', ( #108 ) ) ;
#56 = AXIS2_PLACEMENT_3D ( 'NONE', #91, #206, #61 ) ;
#57 = COORDINATED_UNIVERSAL_TIME_OFFSET ( 1, 0, .AHEAD. ) ;
#58 = CARTESIAN_POINT ( 'NONE',  ( 0.0000000000000000000, 0.0000000000000000000, 0.0000000000000000000 ) ) ;
#59 = CARTESIAN_POINT ( 'NONE',  ( 1.403273238967769501E-14, 0.0000000000000000000, 4.019134295109048516 ) ) ;
#60 = DIRECTION ( 'NONE',  ( 3.491481338843133355E-15, 0.0000000000000000000, 1.000000000000000000 ) ) ;
#61 = DIRECTION ( 'NONE',  ( -1.000000000000000000, 0.0000000000000000000, 3.469446951953619711E-15 ) ) ;
#62 = DIRECTION ( 'NONE',  ( -3.491481338843133355E-15, 1.224646799147353207E-16, -1.000000000000000000 ) ) ;
#63 = DIRECTION ( 'NONE',  ( 3.491481338843133355E-15, 0.0000000000000000000, 1.000000000000000000 ) ) ;
#64 = FACE_OUTER_BOUND ( 'NONE', #132, .T. ) ;
#65 = PERSON_AND_ORGANIZATION_ROLE ( 'design_owner' ) ;
#66 = APPROVAL_PERSON_ORGANIZATION ( #231, #118, #235 ) ;
#67 = FACE_BOUND ( 'NONE', #156, .T. ) ;
#68 = SECURITY_CLASSIFICATION_LEVEL ( 'unclassified' ) ;
#69 = ORIENTED_EDGE ( 'NONE', *, *, #131, .T. ) ;
#70 = PERSON_AND_ORGANIZATION_ROLE ( 'classification_officer' ) ;
#71 = ORIENTED_EDGE ( 'NONE', *, *, #154, .T. ) ;
#72 = CARTESIAN_POINT ( 'NONE',  ( 1.326762908760390423E-13, -4.653657836759941941E-15, 38.00000000000000000 ) ) ;
#73 = EDGE_LOOP ( 'NONE', ( #40 ) ) ;
#74 = CC_DESIGN_PERSON_AND_ORGANIZATION_ASSIGNMENT ( #218, #70, ( #90 ) ) ;
#75 = DIRECTION ( 'NONE',  ( 3.491481338843133355E-15, -1.224646799147353207E-16, 1.000000000000000000 ) ) ;
#76 = CARTESIAN_POINT ( 'NONE',  ( 1.316288464743861212E-13, -4.616918432785521081E-15, 37.69999999999999574 ) ) ;
#77 = DIRECTION ( 'NONE',  ( -4.275831445896958607E-31, -1.000000000000000000, -1.224646799147353207E-16 ) ) ;
#78 = VERTEX_POINT ( 'NONE', #253 ) ;
#79 = CARTESIAN_POINT ( 'NONE',  ( 1.326762908760390423E-13, -4.653657836759941941E-15, 38.00000000000000000 ) ) ;
#80 = FACE_OUTER_BOUND ( 'NONE', #111, .T. ) ;
#81 = PRODUCT_DEFINITION_FORMATION_WITH_SPECIFIED_SOURCE ( 'ANY', '', #238, .NOT_KNOWN. ) ;
#82 = COORDINATED_UNIVERSAL_TIME_OFFSET ( 1, 0, .AHEAD. ) ;
#83 = ORIENTED_EDGE ( 'NONE', *, *, #158, .F. ) ;
#84 = EDGE_LOOP ( 'NONE', ( #236 ) ) ;
#85 = CLOSED_SHELL ( 'NONE', ( #24, #139, #217 ) ) ;
#86 = DATE_AND_TIME ( #16, #219 ) ;
#87 = MANIFOLD_SOLID_BREP ( 'Corps-Déplacer/Copier1[1]', #94 ) ;
#88 = DATE_TIME_ROLE ( 'creation_date' ) ;
#89 = EDGE_LOOP ( 'NONE', ( #50 ) ) ;
#90 = SECURITY_CLASSIFICATION ( '', '', #68 ) ;
#91 = CARTESIAN_POINT ( 'NONE',  ( 2.827764040854955384E-14, 0.0000000000000000000, 8.099038105676674704 ) ) ;
#92 = DIRECTION ( 'NONE',  ( 4.275831445896959482E-31, 1.000000000000000000, 1.224646799147353207E-16 ) ) ;
#93 = DIRECTION ( 'NONE',  ( -3.491481338843133355E-15, 1.224646799147353207E-16, -1.000000000000000000 ) ) ;
#94 = CLOSED_SHELL ( 'NONE', ( #149, #251, #214, #239, #164, #189, #210 ) ) ;
#95 = FACE_OUTER_BOUND ( 'NONE', #262, .T. ) ;
#96 = DIRECTION ( 'NONE',  ( -1.000000000000000000, 0.0000000000000000000, 2.891205793294687694E-15 ) ) ;
#97 = EDGE_CURVE ( 'NONE', #10, #10, #246, .T. ) ;
#98 = CONICAL_SURFACE ( 'NONE', #185, 1.199999999999999956, 0.7853981633974453924 ) ;
#99 = CARTESIAN_POINT ( 'NONE',  ( 5.237222008264698455E-15, 0.0000000000000000000, 1.499999999999999556 ) ) ;
#100 = FACE_BOUND ( 'NONE', #171, .T. ) ;
#101 = CARTESIAN_POINT ( 'NONE',  ( -0.7499999999999742428, 0.0000000000000000000, 6.800000000000003375 ) ) ;
#102 = LOCAL_TIME ( 11, 22, 19.00000000000000000, #82 ) ;
#103 = CALENDAR_DATE ( 2021, 28, 10 ) ;
#104 = ORIENTED_EDGE ( 'NONE', *, *, #242, .T. ) ;
#105 = CC_DESIGN_DATE_AND_TIME_ASSIGNMENT ( #86, #88, ( #215 ) ) ;
#106 = EDGE_CURVE ( 'NONE', #232, #232, #7, .T. ) ;
#107 = PERSON_AND_ORGANIZATION ( #256, #230 ) ;
#108 = ORIENTED_EDGE ( 'NONE', *, *, #131, .F. ) ;
#109 = AXIS2_PLACEMENT_3D ( 'NONE', #112, #60, #197 ) ;
#110 = APPROVAL_STATUS ( 'not_yet_approved' ) ;
#111 = EDGE_LOOP ( 'NONE', ( #258 ) ) ;
#112 = CARTESIAN_POINT ( 'NONE',  ( 2.827764040854955384E-14, 0.0000000000000000000, 8.099038105676674704 ) ) ;
#113 = AXIS2_PLACEMENT_3D ( 'NONE', #162, #2, #138 ) ;
#114 = CIRCLE ( 'NONE', #8, 1.199999999999999956 ) ;
#115 = PLANE ( 'NONE',  #229 ) ;
#116 = FACE_OUTER_BOUND ( 'NONE', #73, .T. ) ;
#117 = CARTESIAN_POINT ( 'NONE',  ( 5.237222008264698455E-15, 1.124819836996389785E-32, 1.499999999999999556 ) ) ;
#118 = APPROVAL ( #125, 'UNSPECIFIED' ) ;
#119 = DIRECTION ( 'NONE',  ( 0.0000000000000000000, 1.000000000000000000, 0.0000000000000000000 ) ) ;
#120 = DIRECTION ( 'NONE',  ( -5.135813185032644414E-31, -1.000000000000000000, -1.445602896647343601E-16 ) ) ;
#121 = CC_DESIGN_PERSON_AND_ORGANIZATION_ASSIGNMENT ( #127, #17, ( #81 ) ) ;
#122 = CARTESIAN_POINT ( 'NONE',  ( -1.499999999999969358, 0.0000000000000000000, 8.099038105676680033 ) ) ;
#123 = AXIS2_PLACEMENT_3D ( 'NONE', #76, #203, #224 ) ;
#124 = PERSON_AND_ORGANIZATION ( #256, #230 ) ;
#125 = APPROVAL_STATUS ( 'not_yet_approved' ) ;
#126 = CARTESIAN_POINT ( 'NONE',  ( -0.07499999999999452938, 0.0000000000000000000, 1.499999999999999778 ) ) ;
#127 = PERSON_AND_ORGANIZATION ( #256, #230 ) ;
#128 = CIRCLE ( 'NONE', #163, 0.07499999999999976130 ) ;
#129 = DATE_TIME_ROLE ( 'classification_date' ) ;
#130 = ORIENTED_EDGE ( 'NONE', *, *, #1, .F. ) ;
#131 = EDGE_CURVE ( 'NONE', #146, #146, #128, .T. ) ;
#132 = EDGE_LOOP ( 'NONE', ( #259 ) ) ;
#133 = EDGE_LOOP ( 'NONE', ( #104 ) ) ;
#134 = CONICAL_SURFACE ( 'NONE', #109, 1.499999999999997558, 0.5235987755982931535 ) ;
#135 = APPROVAL_PERSON_ORGANIZATION ( #193, #228, #240 ) ;
#136 = DESIGN_CONTEXT ( 'detailed design', #252, 'design' ) ;
#137 = CC_DESIGN_PERSON_AND_ORGANIZATION_ASSIGNMENT ( #260, #49, ( #81 ) ) ;
#138 = DIRECTION ( 'NONE',  ( -1.000000000000000000, 0.0000000000000000000, 3.491481338843133355E-15 ) ) ;
#139 = ADVANCED_FACE ( 'NONE', ( #23, #25 ), #243, .T. ) ;
#140 = DIRECTION ( 'NONE',  ( -4.814824860968097515E-31, -1.000000000000000000, -1.355252715606882761E-16 ) ) ;
#141 = ORIENTED_EDGE ( 'NONE', *, *, #97, .F. ) ;
#142 = DIRECTION ( 'NONE',  ( -3.491481338843133355E-15, 0.0000000000000000000, -1.000000000000000000 ) ) ;
#143 = DIRECTION ( 'NONE',  ( 3.491481338843133355E-15, -1.224646799147353207E-16, 1.000000000000000000 ) ) ;
#144 = CARTESIAN_POINT ( 'NONE',  ( 9.530964606261103880E-17, -0.07499999999999987232, 0.02729776756996528039 ) ) ;
#145 = VERTEX_POINT ( 'NONE', #187 ) ;
#146 = VERTEX_POINT ( 'NONE', #126 ) ;
#147 = LOCAL_TIME ( 11, 22, 19.00000000000000000, #57 ) ;
#148 = AXIS2_PLACEMENT_3D ( 'NONE', #22, #93, #26 ) ;
#149 = ADVANCED_FACE ( 'NONE', ( #183, #160 ), #20, .T. ) ;
#150 = VERTEX_POINT ( 'NONE', #122 ) ;
#151 = CC_DESIGN_PERSON_AND_ORGANIZATION_ASSIGNMENT ( #107, #157, ( #215 ) ) ;
#152 = CALENDAR_DATE ( 2021, 28, 10 ) ;
#153 = CONICAL_SURFACE ( 'NONE', #168, 0.7499999999999980016, 0.2617993877991430796 ) ;
#154 = EDGE_CURVE ( 'NONE', #145, #145, #114, .T. ) ;
#155 = DATE_AND_TIME ( #216, #102 ) ;
#156 = EDGE_LOOP ( 'NONE', ( #4 ) ) ;
#157 = PERSON_AND_ORGANIZATION_ROLE ( 'creator' ) ;
#158 = EDGE_CURVE ( 'NONE', #211, #211, #14, .T. ) ;
#159 = DIRECTION ( 'NONE',  ( -3.491481338843133355E-15, 0.0000000000000000000, -1.000000000000000000 ) ) ;
#160 = FACE_OUTER_BOUND ( 'NONE', #89, .T. ) ;
#161 = DIRECTION ( 'NONE',  ( -4.275831445896958607E-31, -1.000000000000000000, -1.224646799147353207E-16 ) ) ;
#162 = CARTESIAN_POINT ( 'NONE',  ( 0.0000000000000000000, 0.0000000000000000000, 0.0000000000000000000 ) ) ;
#163 = AXIS2_PLACEMENT_3D ( 'NONE', #42, #248, #96 ) ;
#164 = ADVANCED_FACE ( 'NONE', ( #95, #182 ), #222, .T. ) ;
#165 = APPLICATION_PROTOCOL_DEFINITION ( 'international standard', 'config_control_design', 1994, #245 ) ;
#166 = DIRECTION ( 'NONE',  ( -1.000000000000000000, 0.0000000000000000000, 2.891205793294687694E-15 ) ) ;
#167 = CIRCLE ( 'NONE', #56, 1.499999999999997558 ) ;
#168 = AXIS2_PLACEMENT_3D ( 'NONE', #184, #63, #169 ) ;
#169 = DIRECTION ( 'NONE',  ( 1.000000000000000000, 0.0000000000000000000, -3.469446951953623261E-15 ) ) ;
#170 = COORDINATED_UNIVERSAL_TIME_OFFSET ( 1, 0, .AHEAD. ) ;
#171 = EDGE_LOOP ( 'NONE', ( #71 ) ) ;
#172 = PERSON_AND_ORGANIZATION ( #256, #230 ) ;
#173 = CALENDAR_DATE ( 2021, 28, 10 ) ;
#174 = EDGE_LOOP ( 'NONE', ( #83 ) ) ;
#175 = PRODUCT_RELATED_PRODUCT_CATEGORY ( 'detail', '', ( #238 ) ) ;
#176 =( GEOMETRIC_REPRESENTATION_CONTEXT ( 3 ) GLOBAL_UNCERTAINTY_ASSIGNED_CONTEXT ( ( #21 ) ) GLOBAL_UNIT_ASSIGNED_CONTEXT ( ( #43, #250, #46 ) ) REPRESENTATION_CONTEXT ( 'NONE', 'WORKASPACE' ) );
#177 = CARTESIAN_POINT ( 'NONE',  ( 0.0000000000000000000, 0.0000000000000000000, 0.0000000000000000000 ) ) ;
#178 = CARTESIAN_POINT ( 'NONE',  ( 9.530964606261107577E-17, -3.343012367842632434E-18, 0.02729776756996529080 ) ) ;
#179 = MANIFOLD_SOLID_BREP ( 'Corps-Déplacer/Copier1[2]', #85 ) ;
#180 = EDGE_LOOP ( 'NONE', ( #195 ) ) ;
#181 = AXIS2_PLACEMENT_3D ( 'NONE', #45, #207, #27 ) ;
#182 = FACE_OUTER_BOUND ( 'NONE', #84, .T. ) ;
#183 = FACE_OUTER_BOUND ( 'NONE', #261, .T. ) ;
#184 = CARTESIAN_POINT ( 'NONE',  ( 1.403273238967769501E-14, 0.0000000000000000000, 4.019134295109048516 ) ) ;
#185 = AXIS2_PLACEMENT_3D ( 'NONE', #79, #255, #29 ) ;
#186 = MECHANICAL_CONTEXT ( 'NONE', #245, 'mechanical' ) ;
#187 = CARTESIAN_POINT ( 'NONE',  ( 1.326762908760390423E-13, 1.199999999999995293, 38.00000000000000000 ) ) ;
#188 = CARTESIAN_POINT ( 'NONE',  ( 1.906192921252232855E-15, -6.686024735685322183E-17, 0.5459553513993090634 ) ) ;
#189 = ADVANCED_FACE ( 'NONE', ( #35, #19 ), #134, .T. ) ;
#190 = LOCAL_TIME ( 11, 22, 19.00000000000000000, #32 ) ;
#191 = COORDINATED_UNIVERSAL_TIME_OFFSET ( 1, 0, .AHEAD. ) ;
#192 = ORIENTED_EDGE ( 'NONE', *, *, #201, .F. ) ;
#193 = PERSON_AND_ORGANIZATION ( #256, #230 ) ;
#194 = AXIS2_PLACEMENT_3D ( 'NONE', #244, #159, #223 ) ;
#195 = ORIENTED_EDGE ( 'NONE', *, *, #201, .T. ) ;
#196 = APPROVAL_PERSON_ORGANIZATION ( #172, #208, #212 ) ;
#197 = DIRECTION ( 'NONE',  ( 1.000000000000000000, 0.0000000000000000000, -3.469446951953619711E-15 ) ) ;
#198 = AXIS2_PLACEMENT_3D ( 'NONE', #58, #142, #249 ) ;
#199 = CONICAL_SURFACE ( 'NONE', #226, 1.499999999999995559, 1.221730476396026388 ) ;
#200 = PLANE ( 'NONE',  #18 ) ;
#201 = EDGE_CURVE ( 'NONE', #28, #28, #36, .T. ) ;
#202 = PLANE ( 'NONE',  #148 ) ;
#203 = DIRECTION ( 'NONE',  ( -3.491481338843133355E-15, 1.224646799147353207E-16, -1.000000000000000000 ) ) ;
#204 = ADVANCED_BREP_SHAPE_REPRESENTATION ( '962817', ( #87, #179, #181 ), #176 ) ;
#205 = LOCAL_TIME ( 11, 22, 19.00000000000000000, #191 ) ;
#206 = DIRECTION ( 'NONE',  ( -3.491481338843133355E-15, 0.0000000000000000000, -1.000000000000000000 ) ) ;
#207 = DIRECTION ( 'NONE',  ( 0.0000000000000000000, 0.0000000000000000000, 1.000000000000000000 ) ) ;
#208 = APPROVAL ( #53, 'UNSPECIFIED' ) ;
#209 = APPLICATION_PROTOCOL_DEFINITION ( 'international standard', 'config_control_design', 1994, #252 ) ;
#210 = ADVANCED_FACE ( 'NONE', ( #247 ), #115, .F. ) ;
#211 = VERTEX_POINT ( 'NONE', #101 ) ;
#212 = APPROVAL_ROLE ( '' ) ;
#213 = EDGE_LOOP ( 'NONE', ( #141 ) ) ;
#214 = ADVANCED_FACE ( 'NONE', ( #116 ), #202, .F. ) ;
#215 = PRODUCT_DEFINITION ( 'UNKNOWN', '', #81, #136 ) ;
#216 = CALENDAR_DATE ( 2021, 28, 10 ) ;
#217 = ADVANCED_FACE ( 'NONE', ( #80 ), #199, .T. ) ;
#218 = PERSON_AND_ORGANIZATION ( #256, #230 ) ;
#219 = LOCAL_TIME ( 11, 22, 19.00000000000000000, #170 ) ;
#220 = DIRECTION ( 'NONE',  ( -3.491481338843133355E-15, 1.224646799147353207E-16, -1.000000000000000000 ) ) ;
#221 = DIRECTION ( 'NONE',  ( -3.491481338843133355E-15, 0.0000000000000000000, -1.000000000000000000 ) ) ;
#222 = CYLINDRICAL_SURFACE ( 'NONE', #113, 0.7499999999999980016 ) ;
#223 = DIRECTION ( 'NONE',  ( -1.000000000000000000, 0.0000000000000000000, 3.469446951953623261E-15 ) ) ;
#224 = DIRECTION ( 'NONE',  ( 0.0000000000000000000, 1.000000000000000000, 0.0000000000000000000 ) ) ;
#225 = CC_DESIGN_DATE_AND_TIME_ASSIGNMENT ( #51, #129, ( #90 ) ) ;
#226 = AXIS2_PLACEMENT_3D ( 'NONE', #188, #48, #120 ) ;
#227 = CARTESIAN_POINT ( 'NONE',  ( 1.316288464743861212E-13, 1.499999999999995337, 37.69999999999999574 ) ) ;
#228 = APPROVAL ( #110, 'UNSPECIFIED' ) ;
#229 = AXIS2_PLACEMENT_3D ( 'NONE', #39, #75, #161 ) ;
#230 = ORGANIZATION ( 'UNSPECIFIED', 'UNSPECIFIED', '' ) ;
#231 = PERSON_AND_ORGANIZATION ( #256, #230 ) ;
#232 = VERTEX_POINT ( 'NONE', #227 ) ;
#233 = AXIS2_PLACEMENT_3D ( 'NONE', #177, #220, #92 ) ;
#234 = SHAPE_DEFINITION_REPRESENTATION ( #44, #204 ) ;
#235 = APPROVAL_ROLE ( '' ) ;
#236 = ORIENTED_EDGE ( 'NONE', *, *, #158, .T. ) ;
#237 = APPROVAL_DATE_TIME ( #155, #228 ) ;
#238 = PRODUCT ( '962817', '962817', '', ( #186 ) ) ;
#239 = ADVANCED_FACE ( 'NONE', ( #67, #11 ), #153, .T. ) ;
#240 = APPROVAL_ROLE ( '' ) ;
#241 = CC_DESIGN_APPROVAL ( #118, ( #215 ) ) ;
#242 = EDGE_CURVE ( 'NONE', #78, #78, #9, .T. ) ;
#243 = CYLINDRICAL_SURFACE ( 'NONE', #198, 0.07499999999999987232 ) ;
#244 = CARTESIAN_POINT ( 'NONE',  ( 2.374207310413330682E-14, 0.0000000000000000000, 6.800000000000000711 ) ) ;
#245 = APPLICATION_CONTEXT ( 'configuration controlled 3d designs of mechanical parts and assemblies' ) ;
#246 = CIRCLE ( 'NONE', #41, 0.07499999999999987232 ) ;
#247 = FACE_OUTER_BOUND ( 'NONE', #133, .T. ) ;
#248 = DIRECTION ( 'NONE',  ( -3.491481338843133355E-15, 0.0000000000000000000, -1.000000000000000000 ) ) ;
#249 = DIRECTION ( 'NONE',  ( -1.000000000000000000, 0.0000000000000000000, 3.491481338843133355E-15 ) ) ;
#250 =( NAMED_UNIT ( * ) PLANE_ANGLE_UNIT ( ) SI_UNIT ( $, .RADIAN. ) );
#251 = ADVANCED_FACE ( 'NONE', ( #64, #100 ), #98, .T. ) ;
#252 = APPLICATION_CONTEXT ( 'configuration controlled 3d designs of mechanical parts and assemblies' ) ;
#253 = CARTESIAN_POINT ( 'NONE',  ( -0.07499999999999452938, 0.0000000000000000000, 1.499999999999999778 ) ) ;
#254 = AXIS2_PLACEMENT_3D ( 'NONE', #59, #221, #38 ) ;
#255 = DIRECTION ( 'NONE',  ( -3.491481338843133355E-15, 1.224646799147353207E-16, -1.000000000000000000 ) ) ;
#256 = PERSON ( 'UNSPECIFIED', 'UNSPECIFIED', 'UNSPECIFIED', ('UNSPECIFIED'), ('UNSPECIFIED'), ('UNSPECIFIED') ) ;
#257 = DATE_AND_TIME ( #103, #205 ) ;
#258 = ORIENTED_EDGE ( 'NONE', *, *, #97, .T. ) ;
#259 = ORIENTED_EDGE ( 'NONE', *, *, #106, .F. ) ;
#260 = PERSON_AND_ORGANIZATION ( #256, #230 ) ;
#261 = EDGE_LOOP ( 'NONE', ( #130 ) ) ;
#262 = EDGE_LOOP ( 'NONE', ( #192 ) ) ;
#263 = CC_DESIGN_APPROVAL ( #228, ( #90 ) ) ;
ENDSEC;
END-ISO-10303-21;
