ISO-10303-21;
HEADER;
FILE_DESCRIPTION (( 'STEP AP203' ),
    '1' );
FILE_NAME ('962814.step',
    '2021-11-25T13:47:09',
    ( '' ),
    ( '' ),
    'SwSTEP 2.0',
    'SolidWorks 2019',
    '' );
FILE_SCHEMA (( 'CONFIG_CONTROL_DESIGN' ));
ENDSEC;

DATA;
#1 = PERSON_AND_ORGANIZATION_ROLE ( 'classification_officer' ) ;
#2 = PRODUCT_RELATED_PRODUCT_CATEGORY ( 'detail', '', ( #66 ) ) ;
#3 = APPROVAL ( #183, 'UNSPECIFIED' ) ;
#4 = DIRECTION ( 'NONE',  ( 3.491481338843133355E-15, -1.224646799147353207E-16, 1.000000000000000000 ) ) ;
#5 = DIRECTION ( 'NONE',  ( 0.0000000000000000000, 1.000000000000000000, 0.0000000000000000000 ) ) ;
#6 = DIRECTION ( 'NONE',  ( -3.491481338843133355E-15, 1.224646799147353207E-16, -1.000000000000000000 ) ) ;
#7 = CARTESIAN_POINT ( 'NONE',  ( 1.326762908760390423E-13, -4.653657836759941941E-15, 38.00000000000000000 ) ) ;
#8 = APPLICATION_PROTOCOL_DEFINITION ( 'international standard', 'config_control_design', 1994, #27 ) ;
#9 = FACE_OUTER_BOUND ( 'NONE', #95, .T. ) ;
#10 = FACE_BOUND ( 'NONE', #110, .T. ) ;
#11 = CLOSED_SHELL ( 'NONE', ( #121, #102, #80 ) ) ;
#12 = LOCAL_TIME ( 14, 47, 9.000000000000000000, #185 ) ;
#13 = CC_DESIGN_PERSON_AND_ORGANIZATION_ASSIGNMENT ( #187, #98, ( #64 ) ) ;
#14 = CARTESIAN_POINT ( 'NONE',  ( 0.0000000000000000000, 0.0000000000000000000, 0.0000000000000000000 ) ) ;
#15 = PERSON_AND_ORGANIZATION ( #54, #36 ) ;
#16 = PERSON_AND_ORGANIZATION ( #54, #36 ) ;
#17 = EDGE_LOOP ( 'NONE', ( #179 ) ) ;
#18 = PERSON_AND_ORGANIZATION ( #54, #36 ) ;
#19 = APPROVAL ( #140, 'UNSPECIFIED' ) ;
#20 = DATE_TIME_ROLE ( 'creation_date' ) ;
#21 = PLANE ( 'NONE',  #194 ) ;
#22 = VERTEX_POINT ( 'NONE', #174 ) ;
#23 = DIRECTION ( 'NONE',  ( 0.0000000000000000000, 1.000000000000000000, 0.0000000000000000000 ) ) ;
#24 = PLANE ( 'NONE',  #55 ) ;
#25 = ORIENTED_EDGE ( 'NONE', *, *, #114, .T. ) ;
#26 = EDGE_LOOP ( 'NONE', ( #154 ) ) ;
#27 = APPLICATION_CONTEXT ( 'configuration controlled 3d designs of mechanical parts and assemblies' ) ;
#28 = ADVANCED_FACE ( 'NONE', ( #181, #168 ), #43, .T. ) ;
#29 = APPROVAL_ROLE ( '' ) ;
#30 = CARTESIAN_POINT ( 'NONE',  ( 1.316288464743861212E-13, 1.499999999999995781, 37.69999999999999574 ) ) ;
#31 = APPROVAL_STATUS ( 'not_yet_approved' ) ;
#32 = DATE_AND_TIME ( #152, #92 ) ;
#33 = CC_DESIGN_PERSON_AND_ORGANIZATION_ASSIGNMENT ( #15, #141, ( #175 ) ) ;
#34 = APPROVAL_ROLE ( '' ) ;
#35 = AXIS2_PLACEMENT_3D ( 'NONE', #128, #117, #70 ) ;
#36 = ORGANIZATION ( 'UNSPECIFIED', 'UNSPECIFIED', '' ) ;
#37 = DIRECTION ( 'NONE',  ( -4.275831445896958607E-31, -1.000000000000000000, -1.224646799147353207E-16 ) ) ;
#38 = SECURITY_CLASSIFICATION ( '', '', #51 ) ;
#39 = DIRECTION ( 'NONE',  ( 3.491481338843133355E-15, -1.224646799147353207E-16, 1.000000000000000000 ) ) ;
#40 =( NAMED_UNIT ( * ) SI_UNIT ( $, .STERADIAN. ) SOLID_ANGLE_UNIT ( ) );
#41 = FACE_OUTER_BOUND ( 'NONE', #166, .T. ) ;
#42 = DIRECTION ( 'NONE',  ( -3.491481338843133355E-15, 1.224646799147353207E-16, -1.000000000000000000 ) ) ;
#43 = CONICAL_SURFACE ( 'NONE', #146, 1.200000000000000178, 0.7853981633974457255 ) ;
#44 = EDGE_LOOP ( 'NONE', ( #133 ) ) ;
#45 = CARTESIAN_POINT ( 'NONE',  ( 1.326762908760390423E-13, -4.653657836759941941E-15, 38.00000000000000000 ) ) ;
#46 = CC_DESIGN_APPROVAL ( #180, ( #64 ) ) ;
#47 = COORDINATED_UNIVERSAL_TIME_OFFSET ( 1, 0, .AHEAD. ) ;
#48 = CALENDAR_DATE ( 2021, 25, 11 ) ;
#49 =( LENGTH_UNIT ( ) NAMED_UNIT ( * ) SI_UNIT ( .MILLI., .METRE. ) );
#50 = PERSON_AND_ORGANIZATION ( #54, #36 ) ;
#51 = SECURITY_CLASSIFICATION_LEVEL ( 'unclassified' ) ;
#52 = APPROVAL_PERSON_ORGANIZATION ( #136, #19, #199 ) ;
#53 = EDGE_CURVE ( 'NONE', #22, #22, #99, .T. ) ;
#54 = PERSON ( 'UNSPECIFIED', 'UNSPECIFIED', 'UNSPECIFIED', ('UNSPECIFIED'), ('UNSPECIFIED'), ('UNSPECIFIED') ) ;
#55 = AXIS2_PLACEMENT_3D ( 'NONE', #101, #93, #162 ) ;
#56 = CARTESIAN_POINT ( 'NONE',  ( 1.326762908760390423E-13, 8.998558695971078593E-33, 38.00000000000000000 ) ) ;
#57 = DIRECTION ( 'NONE',  ( 4.275831445896958607E-31, 1.000000000000000000, 1.224646799147353207E-16 ) ) ;
#58 = MANIFOLD_SOLID_BREP ( 'Corps-Déplacer/Copier1[2]', #11 ) ;
#59 = CC_DESIGN_DATE_AND_TIME_ASSIGNMENT ( #76, #137, ( #38 ) ) ;
#60 = EDGE_LOOP ( 'NONE', ( #73 ) ) ;
#61 = CALENDAR_DATE ( 2021, 25, 11 ) ;
#62 = DATE_AND_TIME ( #61, #112 ) ;
#63 = APPROVAL_DATE_TIME ( #201, #19 ) ;
#64 = PRODUCT_DEFINITION ( 'UNKNOWN', '', #175, #159 ) ;
#65 = CC_DESIGN_PERSON_AND_ORGANIZATION_ASSIGNMENT ( #18, #78, ( #175 ) ) ;
#66 = PRODUCT ( '962814', '962814', '', ( #100 ) ) ;
#67 = DIRECTION ( 'NONE',  ( -3.491481338843133355E-15, 1.224646799147353207E-16, -1.000000000000000000 ) ) ;
#68 = CARTESIAN_POINT ( 'NONE',  ( 1.326762908760390423E-13, 1.199999999999995515, 38.00000000000000000 ) ) ;
#69 = CC_DESIGN_SECURITY_CLASSIFICATION ( #38, ( #175 ) ) ;
#70 = DIRECTION ( 'NONE',  ( 0.0000000000000000000, 1.000000000000000000, 0.0000000000000000000 ) ) ;
#71 = CARTESIAN_POINT ( 'NONE',  ( 1.316288464743861212E-13, -4.616918432785521081E-15, 37.69999999999999574 ) ) ;
#72 = CC_DESIGN_DATE_AND_TIME_ASSIGNMENT ( #153, #20, ( #64 ) ) ;
#73 = ORIENTED_EDGE ( 'NONE', *, *, #135, .F. ) ;
#74 = CALENDAR_DATE ( 2021, 25, 11 ) ;
#75 = ORIENTED_EDGE ( 'NONE', *, *, #135, .T. ) ;
#76 = DATE_AND_TIME ( #74, #203 ) ;
#77 = AXIS2_PLACEMENT_3D ( 'NONE', #131, #42, #90 ) ;
#78 = PERSON_AND_ORGANIZATION_ROLE ( 'creator' ) ;
#79 = PERSON_AND_ORGANIZATION ( #54, #36 ) ;
#80 = ADVANCED_FACE ( 'NONE', ( #118 ), #24, .T. ) ;
#81 = CARTESIAN_POINT ( 'NONE',  ( 1.921981898160619986E-14, 1.124819836996389511E-32, 5.504774941164225055 ) ) ;
#82 = CIRCLE ( 'NONE', #111, 1.200000000000000178 ) ;
#83 = DIRECTION ( 'NONE',  ( 0.0000000000000000000, -1.000000000000000000, 0.0000000000000000000 ) ) ;
#84 = CLOSED_SHELL ( 'NONE', ( #195, #190, #28, #158 ) ) ;
#85 = APPROVAL_PERSON_ORGANIZATION ( #16, #3, #34 ) ;
#86 = CARTESIAN_POINT ( 'NONE',  ( 0.0000000000000000000, 0.0000000000000000000, 0.0000000000000000000 ) ) ;
#87 = VERTEX_POINT ( 'NONE', #68 ) ;
#88 = DIRECTION ( 'NONE',  ( 3.491481338843133355E-15, -1.224646799147353207E-16, 1.000000000000000000 ) ) ;
#89 = EDGE_CURVE ( 'NONE', #144, #144, #173, .T. ) ;
#90 = DIRECTION ( 'NONE',  ( 0.0000000000000000000, 1.000000000000000000, 0.0000000000000000000 ) ) ;
#91 = CIRCLE ( 'NONE', #35, 1.499999999999996225 ) ;
#92 = LOCAL_TIME ( 14, 47, 9.000000000000000000, #182 ) ;
#93 = DIRECTION ( 'NONE',  ( 3.491481338843133355E-15, -1.224646799147353207E-16, 1.000000000000000000 ) ) ;
#94 = EDGE_LOOP ( 'NONE', ( #151 ) ) ;
#95 = EDGE_LOOP ( 'NONE', ( #138 ) ) ;
#96 = COORDINATED_UNIVERSAL_TIME_OFFSET ( 1, 0, .AHEAD. ) ;
#97 = CARTESIAN_POINT ( 'NONE',  ( 1.921981898160619986E-14, 1.499999999999995559, 5.504774941164225055 ) ) ;
#98 = PERSON_AND_ORGANIZATION_ROLE ( 'creator' ) ;
#99 = CIRCLE ( 'NONE', #142, 0.02500000000000006731 ) ;
#100 = MECHANICAL_CONTEXT ( 'NONE', #27, 'mechanical' ) ;
#101 = CARTESIAN_POINT ( 'NONE',  ( 1.921981898160619986E-14, 1.124819836996389511E-32, 5.504774941164225055 ) ) ;
#102 = ADVANCED_FACE ( 'NONE', ( #10, #147 ), #202, .T. ) ;
#103 = CARTESIAN_POINT ( 'NONE',  ( 1.921981898160619986E-14, 1.499999999999995559, 5.504774941164225055 ) ) ;
#104 = DIRECTION ( 'NONE',  ( -4.275831445896958607E-31, -1.000000000000000000, -1.224646799147353207E-16 ) ) ;
#105 = PLANE ( 'NONE',  #193 ) ;
#106 = EDGE_CURVE ( 'NONE', #87, #87, #82, .T. ) ;
#107 = AXIS2_PLACEMENT_3D ( 'NONE', #86, #115, #156 ) ;
#108 = ORIENTED_EDGE ( 'NONE', *, *, #53, .F. ) ;
#109 = CIRCLE ( 'NONE', #184, 1.500000000000000222 ) ;
#110 = EDGE_LOOP ( 'NONE', ( #108 ) ) ;
#111 = AXIS2_PLACEMENT_3D ( 'NONE', #7, #67, #23 ) ;
#112 = LOCAL_TIME ( 14, 47, 9.000000000000000000, #96 ) ;
#113 = APPLICATION_PROTOCOL_DEFINITION ( 'international standard', 'config_control_design', 1994, #188 ) ;
#114 = EDGE_CURVE ( 'NONE', #191, #191, #91, .T. ) ;
#115 = DIRECTION ( 'NONE',  ( 0.0000000000000000000, 0.0000000000000000000, 1.000000000000000000 ) ) ;
#116 = FACE_OUTER_BOUND ( 'NONE', #119, .T. ) ;
#117 = DIRECTION ( 'NONE',  ( -3.491481338843133355E-15, 1.224646799147353207E-16, -1.000000000000000000 ) ) ;
#118 = FACE_OUTER_BOUND ( 'NONE', #26, .T. ) ;
#119 = EDGE_LOOP ( 'NONE', ( #167 ) ) ;
#120 = AXIS2_PLACEMENT_3D ( 'NONE', #196, #88, #83 ) ;
#121 = ADVANCED_FACE ( 'NONE', ( #189 ), #105, .F. ) ;
#122 = AXIS2_PLACEMENT_3D ( 'NONE', #56, #178, #177 ) ;
#123 = SHAPE_DEFINITION_REPRESENTATION ( #143, #134 ) ;
#124 = DIRECTION ( 'NONE',  ( -3.491481338843133355E-15, 1.224646799147353207E-16, -1.000000000000000000 ) ) ;
#125 = DIRECTION ( 'NONE',  ( 4.275831445896958607E-31, 1.000000000000000000, 1.224646799147353207E-16 ) ) ;
#126 = MANIFOLD_SOLID_BREP ( 'Corps-Déplacer/Copier1[1]', #84 ) ;
#127 =( GEOMETRIC_REPRESENTATION_CONTEXT ( 3 ) GLOBAL_UNCERTAINTY_ASSIGNED_CONTEXT ( ( #161 ) ) GLOBAL_UNIT_ASSIGNED_CONTEXT ( ( #49, #170, #40 ) ) REPRESENTATION_CONTEXT ( 'NONE', 'WORKASPACE' ) );
#128 = CARTESIAN_POINT ( 'NONE',  ( 1.921981898160619986E-14, -6.741405011723328509E-16, 5.504774941164225055 ) ) ;
#129 = CARTESIAN_POINT ( 'NONE',  ( -2.251917752963718537E-32, 7.898664207163966361E-34, -6.449748786885593002E-18 ) ) ;
#130 = DIRECTION ( 'NONE',  ( 0.0000000000000000000, 1.000000000000000000, 0.0000000000000000000 ) ) ;
#131 = CARTESIAN_POINT ( 'NONE',  ( 1.921981898160619986E-14, -6.741405011723328509E-16, 5.504774941164225055 ) ) ;
#132 = VERTEX_POINT ( 'NONE', #30 ) ;
#133 = ORIENTED_EDGE ( 'NONE', *, *, #106, .T. ) ;
#134 = ADVANCED_BREP_SHAPE_REPRESENTATION ( '962814', ( #126, #58, #107 ), #127 ) ;
#135 = EDGE_CURVE ( 'NONE', #132, #132, #109, .T. ) ;
#136 = PERSON_AND_ORGANIZATION ( #54, #36 ) ;
#137 = DATE_TIME_ROLE ( 'classification_date' ) ;
#138 = ORIENTED_EDGE ( 'NONE', *, *, #106, .F. ) ;
#139 = CC_DESIGN_APPROVAL ( #3, ( #175 ) ) ;
#140 = APPROVAL_STATUS ( 'not_yet_approved' ) ;
#141 = PERSON_AND_ORGANIZATION_ROLE ( 'design_supplier' ) ;
#142 = AXIS2_PLACEMENT_3D ( 'NONE', #129, #149, #57 ) ;
#143 = PRODUCT_DEFINITION_SHAPE ( 'NONE', 'NONE',  #64 ) ;
#144 = VERTEX_POINT ( 'NONE', #103 ) ;
#145 = CC_DESIGN_PERSON_AND_ORGANIZATION_ASSIGNMENT ( #50, #155, ( #66 ) ) ;
#146 = AXIS2_PLACEMENT_3D ( 'NONE', #45, #124, #5 ) ;
#147 = FACE_OUTER_BOUND ( 'NONE', #198, .T. ) ;
#148 = DIRECTION ( 'NONE',  ( -3.491481338843133355E-15, 1.224646799147353207E-16, -1.000000000000000000 ) ) ;
#149 = DIRECTION ( 'NONE',  ( -3.491481338843133355E-15, 1.224646799147353207E-16, -1.000000000000000000 ) ) ;
#150 = CYLINDRICAL_SURFACE ( 'NONE', #172, 1.499999999999998224 ) ;
#151 = ORIENTED_EDGE ( 'NONE', *, *, #53, .T. ) ;
#152 = CALENDAR_DATE ( 2021, 25, 11 ) ;
#153 = DATE_AND_TIME ( #48, #12 ) ;
#154 = ORIENTED_EDGE ( 'NONE', *, *, #114, .F. ) ;
#155 = PERSON_AND_ORGANIZATION_ROLE ( 'design_owner' ) ;
#156 = DIRECTION ( 'NONE',  ( 1.000000000000000000, 0.0000000000000000000, 0.0000000000000000000 ) ) ;
#157 = PERSON_AND_ORGANIZATION ( #54, #36 ) ;
#158 = ADVANCED_FACE ( 'NONE', ( #9 ), #192, .F. ) ;
#159 = DESIGN_CONTEXT ( 'detailed design', #188, 'design' ) ;
#160 = APPROVAL_PERSON_ORGANIZATION ( #79, #180, #29 ) ;
#161 = UNCERTAINTY_MEASURE_WITH_UNIT (LENGTH_MEASURE( 1.000000000000000082E-05 ), #49, 'distance_accuracy_value', 'NONE');
#162 = DIRECTION ( 'NONE',  ( -4.275831445896958607E-31, -1.000000000000000000, -1.224646799147353207E-16 ) ) ;
#163 = CC_DESIGN_APPROVAL ( #19, ( #38 ) ) ;
#164 = FACE_OUTER_BOUND ( 'NONE', #17, .T. ) ;
#165 = CC_DESIGN_PERSON_AND_ORGANIZATION_ASSIGNMENT ( #157, #1, ( #38 ) ) ;
#166 = EDGE_LOOP ( 'NONE', ( #75 ) ) ;
#167 = ORIENTED_EDGE ( 'NONE', *, *, #89, .T. ) ;
#168 = FACE_BOUND ( 'NONE', #44, .T. ) ;
#169 = COORDINATED_UNIVERSAL_TIME_OFFSET ( 1, 0, .AHEAD. ) ;
#170 =( NAMED_UNIT ( * ) PLANE_ANGLE_UNIT ( ) SI_UNIT ( $, .RADIAN. ) );
#171 = APPROVAL_DATE_TIME ( #62, #180 ) ;
#172 = AXIS2_PLACEMENT_3D ( 'NONE', #14, #6, #125 ) ;
#173 = CIRCLE ( 'NONE', #77, 1.499999999999996225 ) ;
#174 = CARTESIAN_POINT ( 'NONE',  ( -1.182959891489475848E-32, 0.02500000000000006731, -3.388131789017201356E-18 ) ) ;
#175 = PRODUCT_DEFINITION_FORMATION_WITH_SPECIFIED_SOURCE ( 'ANY', '', #66, .NOT_KNOWN. ) ;
#176 = CARTESIAN_POINT ( 'NONE',  ( -1.125958876481859269E-32, 3.949332103581983180E-34, -3.224874393442796501E-18 ) ) ;
#177 = DIRECTION ( 'NONE',  ( 4.275831445896958607E-31, 1.000000000000000000, 1.224646799147353207E-16 ) ) ;
#178 = DIRECTION ( 'NONE',  ( -3.491481338843133355E-15, 1.224646799147353207E-16, -1.000000000000000000 ) ) ;
#179 = ORIENTED_EDGE ( 'NONE', *, *, #89, .F. ) ;
#180 = APPROVAL ( #31, 'UNSPECIFIED' ) ;
#181 = FACE_OUTER_BOUND ( 'NONE', #60, .T. ) ;
#182 = COORDINATED_UNIVERSAL_TIME_OFFSET ( 1, 0, .AHEAD. ) ;
#183 = APPROVAL_STATUS ( 'not_yet_approved' ) ;
#184 = AXIS2_PLACEMENT_3D ( 'NONE', #71, #148, #130 ) ;
#185 = COORDINATED_UNIVERSAL_TIME_OFFSET ( 1, 0, .AHEAD. ) ;
#186 = APPROVAL_DATE_TIME ( #32, #3 ) ;
#187 = PERSON_AND_ORGANIZATION ( #54, #36 ) ;
#188 = APPLICATION_CONTEXT ( 'configuration controlled 3d designs of mechanical parts and assemblies' ) ;
#189 = FACE_OUTER_BOUND ( 'NONE', #94, .T. ) ;
#190 = ADVANCED_FACE ( 'NONE', ( #164, #41 ), #150, .T. ) ;
#191 = VERTEX_POINT ( 'NONE', #97 ) ;
#192 = PLANE ( 'NONE',  #122 ) ;
#193 = AXIS2_PLACEMENT_3D ( 'NONE', #176, #39, #104 ) ;
#194 = AXIS2_PLACEMENT_3D ( 'NONE', #81, #4, #37 ) ;
#195 = ADVANCED_FACE ( 'NONE', ( #116 ), #21, .F. ) ;
#196 = CARTESIAN_POINT ( 'NONE',  ( 1.921981898160619986E-14, -6.741405011723328509E-16, 5.504774941164225055 ) ) ;
#197 = LOCAL_TIME ( 14, 47, 9.000000000000000000, #169 ) ;
#198 = EDGE_LOOP ( 'NONE', ( #25 ) ) ;
#199 = APPROVAL_ROLE ( '' ) ;
#200 = CALENDAR_DATE ( 2021, 25, 11 ) ;
#201 = DATE_AND_TIME ( #200, #197 ) ;
#202 = CONICAL_SURFACE ( 'NONE', #120, 1.499999999999996225, 0.2617993877991428020 ) ;
#203 = LOCAL_TIME ( 14, 47, 9.000000000000000000, #47 ) ;
ENDSEC;
END-ISO-10303-21;
