ISO-10303-21;
HEADER;
FILE_DESCRIPTION (( 'STEP AP203' ),
    '1' );
FILE_NAME ('962813.step',
    '2021-11-25T13:47:09',
    ( '' ),
    ( '' ),
    'SwSTEP 2.0',
    'SolidWorks 2019',
    '' );
FILE_SCHEMA (( 'CONFIG_CONTROL_DESIGN' ));
ENDSEC;

DATA;
#1 = PRODUCT_DEFINITION ( 'UNKNOWN', '', #102, #64 ) ;
#2 = CC_DESIGN_APPROVAL ( #77, ( #35 ) ) ;
#3 = MANIFOLD_SOLID_BREP ( 'Corps-Déplacer/Copier1[2]', #87 ) ;
#4 = EDGE_LOOP ( 'NONE', ( #113 ) ) ;
#5 = ORIENTED_EDGE ( 'NONE', *, *, #46, .F. ) ;
#6 = APPROVAL_STATUS ( 'not_yet_approved' ) ;
#7 = EDGE_LOOP ( 'NONE', ( #5 ) ) ;
#8 = AXIS2_PLACEMENT_3D ( 'NONE', #119, #122, #185 ) ;
#9 = ADVANCED_FACE ( 'NONE', ( #66 ), #83, .F. ) ;
#10 = CALENDAR_DATE ( 2021, 25, 11 ) ;
#11 = VERTEX_POINT ( 'NONE', #179 ) ;
#12 = DIRECTION ( 'NONE',  ( 3.491481338843133355E-15, -1.224646799147353207E-16, 1.000000000000000000 ) ) ;
#13 = CARTESIAN_POINT ( 'NONE',  ( 1.889405933785016482E-14, 1.499999999999995559, 5.411473670975000871 ) ) ;
#14 = FACE_OUTER_BOUND ( 'NONE', #4, .T. ) ;
#15 = CIRCLE ( 'NONE', #32, 0.04999999999999991257 ) ;
#16 = CC_DESIGN_PERSON_AND_ORGANIZATION_ASSIGNMENT ( #133, #67, ( #102 ) ) ;
#17 = ORGANIZATION ( 'UNSPECIFIED', 'UNSPECIFIED', '' ) ;
#18 = CC_DESIGN_DATE_AND_TIME_ASSIGNMENT ( #152, #137, ( #35 ) ) ;
#19 = AXIS2_PLACEMENT_3D ( 'NONE', #201, #167, #158 ) ;
#20 = ORIENTED_EDGE ( 'NONE', *, *, #61, .T. ) ;
#21 = COORDINATED_UNIVERSAL_TIME_OFFSET ( 1, 0, .AHEAD. ) ;
#22 = ORIENTED_EDGE ( 'NONE', *, *, #97, .F. ) ;
#23 = APPROVAL_ROLE ( '' ) ;
#24 = DIRECTION ( 'NONE',  ( 4.275831445896958607E-31, 1.000000000000000000, 1.224646799147353207E-16 ) ) ;
#25 = APPROVAL_STATUS ( 'not_yet_approved' ) ;
#26 = DIRECTION ( 'NONE',  ( 0.0000000000000000000, -1.000000000000000000, 0.0000000000000000000 ) ) ;
#27 = VERTEX_POINT ( 'NONE', #123 ) ;
#28 = APPROVAL ( #160, 'UNSPECIFIED' ) ;
#29 = DIRECTION ( 'NONE',  ( 0.0000000000000000000, 1.000000000000000000, 0.0000000000000000000 ) ) ;
#30 = DIRECTION ( 'NONE',  ( -3.491481338843133355E-15, 1.224646799147353207E-16, -1.000000000000000000 ) ) ;
#31 = ADVANCED_FACE ( 'NONE', ( #136 ), #196, .F. ) ;
#32 = AXIS2_PLACEMENT_3D ( 'NONE', #73, #141, #146 ) ;
#33 = MECHANICAL_CONTEXT ( 'NONE', #69, 'mechanical' ) ;
#34 = PERSON ( 'UNSPECIFIED', 'UNSPECIFIED', 'UNSPECIFIED', ('UNSPECIFIED'), ('UNSPECIFIED'), ('UNSPECIFIED') ) ;
#35 = SECURITY_CLASSIFICATION ( '', '', #84 ) ;
#36 = DIRECTION ( 'NONE',  ( 3.491481338843133355E-15, -1.224646799147353207E-16, 1.000000000000000000 ) ) ;
#37 = APPROVAL_PERSON_ORGANIZATION ( #115, #198, #82 ) ;
#38 = PERSON_AND_ORGANIZATION_ROLE ( 'creator' ) ;
#39 = VERTEX_POINT ( 'NONE', #108 ) ;
#40 = CONICAL_SURFACE ( 'NONE', #100, 1.499999999999996225, 0.2617993877991428020 ) ;
#41 = CARTESIAN_POINT ( 'NONE',  ( 1.889405933785016482E-14, 1.124819836996389511E-32, 5.411473670975000871 ) ) ;
#42 = APPROVAL_PERSON_ORGANIZATION ( #178, #28, #23 ) ;
#43 = VERTEX_POINT ( 'NONE', #111 ) ;
#44 = AXIS2_PLACEMENT_3D ( 'NONE', #189, #47, #24 ) ;
#45 = CC_DESIGN_SECURITY_CLASSIFICATION ( #35, ( #102 ) ) ;
#46 = EDGE_CURVE ( 'NONE', #11, #11, #170, .T. ) ;
#47 = DIRECTION ( 'NONE',  ( -3.491481338843133355E-15, 1.224646799147353207E-16, -1.000000000000000000 ) ) ;
#48 = PERSON_AND_ORGANIZATION ( #34, #17 ) ;
#49 = APPROVAL_DATE_TIME ( #86, #28 ) ;
#50 = CARTESIAN_POINT ( 'NONE',  ( -1.364697834346606828E-32, 4.786715644281966052E-34, -3.908649945122678118E-18 ) ) ;
#51 = COORDINATED_UNIVERSAL_TIME_OFFSET ( 1, 0, .AHEAD. ) ;
#52 = COORDINATED_UNIVERSAL_TIME_OFFSET ( 1, 0, .AHEAD. ) ;
#53 = CARTESIAN_POINT ( 'NONE',  ( 1.889405933785016482E-14, 1.124819836996389511E-32, 5.411473670975000871 ) ) ;
#54 = EDGE_CURVE ( 'NONE', #43, #43, #15, .T. ) ;
#55 = CYLINDRICAL_SURFACE ( 'NONE', #8, 1.499999999999998224 ) ;
#56 = DIRECTION ( 'NONE',  ( 0.0000000000000000000, 1.000000000000000000, 0.0000000000000000000 ) ) ;
#57 = FACE_BOUND ( 'NONE', #176, .T. ) ;
#58 = CC_DESIGN_PERSON_AND_ORGANIZATION_ASSIGNMENT ( #190, #38, ( #1 ) ) ;
#59 = CC_DESIGN_APPROVAL ( #28, ( #102 ) ) ;
#60 = PRODUCT_DEFINITION_SHAPE ( 'NONE', 'NONE',  #1 ) ;
#61 = EDGE_CURVE ( 'NONE', #39, #39, #193, .T. ) ;
#62 = EDGE_LOOP ( 'NONE', ( #199 ) ) ;
#63 = COORDINATED_UNIVERSAL_TIME_OFFSET ( 1, 0, .AHEAD. ) ;
#64 = DESIGN_CONTEXT ( 'detailed design', #74, 'design' ) ;
#65 = CALENDAR_DATE ( 2021, 25, 11 ) ;
#66 = FACE_OUTER_BOUND ( 'NONE', #7, .T. ) ;
#67 = PERSON_AND_ORGANIZATION_ROLE ( 'creator' ) ;
#68 = MANIFOLD_SOLID_BREP ( 'Corps-Déplacer/Copier1[1]', #165 ) ;
#69 = APPLICATION_CONTEXT ( 'configuration controlled 3d designs of mechanical parts and assemblies' ) ;
#70 = PERSON_AND_ORGANIZATION_ROLE ( 'design_supplier' ) ;
#71 = ADVANCED_FACE ( 'NONE', ( #57, #157 ), #40, .T. ) ;
#72 = FACE_OUTER_BOUND ( 'NONE', #101, .T. ) ;
#73 = CARTESIAN_POINT ( 'NONE',  ( -2.729395668693213655E-32, 9.573431288563932104E-34, -7.817299890245356237E-18 ) ) ;
#74 = APPLICATION_CONTEXT ( 'configuration controlled 3d designs of mechanical parts and assemblies' ) ;
#75 = CARTESIAN_POINT ( 'NONE',  ( 1.326762908760390423E-13, -4.653657836759941941E-15, 38.00000000000000000 ) ) ;
#76 = DIRECTION ( 'NONE',  ( -4.275831445896958607E-31, -1.000000000000000000, -1.224646799147353207E-16 ) ) ;
#77 = APPROVAL ( #6, 'UNSPECIFIED' ) ;
#78 = AXIS2_PLACEMENT_3D ( 'NONE', #75, #161, #56 ) ;
#79 = CC_DESIGN_PERSON_AND_ORGANIZATION_ASSIGNMENT ( #171, #99, ( #126 ) ) ;
#80 = CALENDAR_DATE ( 2021, 25, 11 ) ;
#81 = AXIS2_PLACEMENT_3D ( 'NONE', #140, #30, #29 ) ;
#82 = APPROVAL_ROLE ( '' ) ;
#83 = PLANE ( 'NONE',  #44 ) ;
#84 = SECURITY_CLASSIFICATION_LEVEL ( 'unclassified' ) ;
#85 =( LENGTH_UNIT ( ) NAMED_UNIT ( * ) SI_UNIT ( .MILLI., .METRE. ) );
#86 = DATE_AND_TIME ( #80, #145 ) ;
#87 = CLOSED_SHELL ( 'NONE', ( #31, #71, #103 ) ) ;
#88 = APPROVAL_PERSON_ORGANIZATION ( #197, #77, #89 ) ;
#89 = APPROVAL_ROLE ( '' ) ;
#90 = CARTESIAN_POINT ( 'NONE',  ( 1.316288464743861212E-13, -4.616918432785521081E-15, 37.69999999999999574 ) ) ;
#91 = PLANE ( 'NONE',  #155 ) ;
#92 = CARTESIAN_POINT ( 'NONE',  ( 1.889405933785016482E-14, -6.627143909829712471E-16, 5.411473670975000871 ) ) ;
#93 = LOCAL_TIME ( 14, 47, 9.000000000000000000, #51 ) ;
#94 = FACE_OUTER_BOUND ( 'NONE', #130, .T. ) ;
#95 = FACE_BOUND ( 'NONE', #104, .T. ) ;
#96 = AXIS2_PLACEMENT_3D ( 'NONE', #156, #202, #168 ) ;
#97 = EDGE_CURVE ( 'NONE', #163, #163, #121, .T. ) ;
#98 = ADVANCED_FACE ( 'NONE', ( #164 ), #91, .F. ) ;
#99 = PERSON_AND_ORGANIZATION_ROLE ( 'design_owner' ) ;
#100 = AXIS2_PLACEMENT_3D ( 'NONE', #92, #12, #26 ) ;
#101 = EDGE_LOOP ( 'NONE', ( #117 ) ) ;
#102 = PRODUCT_DEFINITION_FORMATION_WITH_SPECIFIED_SOURCE ( 'ANY', '', #126, .NOT_KNOWN. ) ;
#103 = ADVANCED_FACE ( 'NONE', ( #72 ), #109, .T. ) ;
#104 = EDGE_LOOP ( 'NONE', ( #132 ) ) ;
#105 = CALENDAR_DATE ( 2021, 25, 11 ) ;
#106 = ORIENTED_EDGE ( 'NONE', *, *, #97, .T. ) ;
#107 = ADVANCED_FACE ( 'NONE', ( #14, #95 ), #203, .T. ) ;
#108 = CARTESIAN_POINT ( 'NONE',  ( 1.316288464743861212E-13, 1.499999999999995781, 37.69999999999999574 ) ) ;
#109 = PLANE ( 'NONE',  #175 ) ;
#110 = LOCAL_TIME ( 14, 47, 9.000000000000000000, #52 ) ;
#111 = CARTESIAN_POINT ( 'NONE',  ( -5.914799457447379239E-33, 0.04999999999999991257, -1.694065894508600678E-18 ) ) ;
#112 = APPLICATION_PROTOCOL_DEFINITION ( 'international standard', 'config_control_design', 1994, #69 ) ;
#113 = ORIENTED_EDGE ( 'NONE', *, *, #61, .F. ) ;
#114 = APPROVAL_DATE_TIME ( #118, #77 ) ;
#115 = PERSON_AND_ORGANIZATION ( #34, #17 ) ;
#116 = CC_DESIGN_PERSON_AND_ORGANIZATION_ASSIGNMENT ( #48, #191, ( #35 ) ) ;
#117 = ORIENTED_EDGE ( 'NONE', *, *, #129, .F. ) ;
#118 = DATE_AND_TIME ( #65, #93 ) ;
#119 = CARTESIAN_POINT ( 'NONE',  ( 0.0000000000000000000, 0.0000000000000000000, 0.0000000000000000000 ) ) ;
#120 = AXIS2_PLACEMENT_3D ( 'NONE', #50, #36, #177 ) ;
#121 = CIRCLE ( 'NONE', #96, 1.499999999999996225 ) ;
#122 = DIRECTION ( 'NONE',  ( -3.491481338843133355E-15, 1.224646799147353207E-16, -1.000000000000000000 ) ) ;
#123 = CARTESIAN_POINT ( 'NONE',  ( 1.889405933785016482E-14, 1.499999999999995559, 5.411473670975000871 ) ) ;
#124 =( NAMED_UNIT ( * ) SI_UNIT ( $, .STERADIAN. ) SOLID_ANGLE_UNIT ( ) );
#125 = DIRECTION ( 'NONE',  ( 3.491481338843133355E-15, -1.224646799147353207E-16, 1.000000000000000000 ) ) ;
#126 = PRODUCT ( '962813', '962813', '', ( #33 ) ) ;
#127 =( GEOMETRIC_REPRESENTATION_CONTEXT ( 3 ) GLOBAL_UNCERTAINTY_ASSIGNED_CONTEXT ( ( #188 ) ) GLOBAL_UNIT_ASSIGNED_CONTEXT ( ( #85, #183, #124 ) ) REPRESENTATION_CONTEXT ( 'NONE', 'WORKASPACE' ) );
#128 = CARTESIAN_POINT ( 'NONE',  ( 0.0000000000000000000, 0.0000000000000000000, 0.0000000000000000000 ) ) ;
#129 = EDGE_CURVE ( 'NONE', #27, #27, #147, .T. ) ;
#130 = EDGE_LOOP ( 'NONE', ( #22 ) ) ;
#131 = APPROVAL_DATE_TIME ( #148, #198 ) ;
#132 = ORIENTED_EDGE ( 'NONE', *, *, #46, .T. ) ;
#133 = PERSON_AND_ORGANIZATION ( #34, #17 ) ;
#134 = ORIENTED_EDGE ( 'NONE', *, *, #54, .F. ) ;
#135 = APPLICATION_PROTOCOL_DEFINITION ( 'international standard', 'config_control_design', 1994, #74 ) ;
#136 = FACE_OUTER_BOUND ( 'NONE', #62, .T. ) ;
#137 = DATE_TIME_ROLE ( 'classification_date' ) ;
#138 = EDGE_LOOP ( 'NONE', ( #106 ) ) ;
#139 = DATE_AND_TIME ( #105, #110 ) ;
#140 = CARTESIAN_POINT ( 'NONE',  ( 1.889405933785016482E-14, -6.627143909829712471E-16, 5.411473670975000871 ) ) ;
#141 = DIRECTION ( 'NONE',  ( -3.491481338843133355E-15, 1.224646799147353207E-16, -1.000000000000000000 ) ) ;
#142 = ADVANCED_FACE ( 'NONE', ( #94, #182 ), #55, .T. ) ;
#143 = DIRECTION ( 'NONE',  ( -4.275831445896958607E-31, -1.000000000000000000, -1.224646799147353207E-16 ) ) ;
#144 = DIRECTION ( 'NONE',  ( 0.0000000000000000000, 1.000000000000000000, 0.0000000000000000000 ) ) ;
#145 = LOCAL_TIME ( 14, 47, 9.000000000000000000, #149 ) ;
#146 = DIRECTION ( 'NONE',  ( 4.275831445896958607E-31, 1.000000000000000000, 1.224646799147353207E-16 ) ) ;
#147 = CIRCLE ( 'NONE', #81, 1.499999999999996225 ) ;
#148 = DATE_AND_TIME ( #180, #195 ) ;
#149 = COORDINATED_UNIVERSAL_TIME_OFFSET ( 1, 0, .AHEAD. ) ;
#150 = ADVANCED_BREP_SHAPE_REPRESENTATION ( '962813', ( #68, #3, #172 ), #127 ) ;
#151 = EDGE_LOOP ( 'NONE', ( #20 ) ) ;
#152 = DATE_AND_TIME ( #10, #166 ) ;
#153 = DIRECTION ( 'NONE',  ( 3.491481338843133355E-15, -1.224646799147353207E-16, 1.000000000000000000 ) ) ;
#154 = DIRECTION ( 'NONE',  ( -3.491481338843133355E-15, 1.224646799147353207E-16, -1.000000000000000000 ) ) ;
#155 = AXIS2_PLACEMENT_3D ( 'NONE', #53, #153, #143 ) ;
#156 = CARTESIAN_POINT ( 'NONE',  ( 1.889405933785016482E-14, -6.627143909829712471E-16, 5.411473670975000871 ) ) ;
#157 = FACE_OUTER_BOUND ( 'NONE', #159, .T. ) ;
#158 = DIRECTION ( 'NONE',  ( 0.0000000000000000000, 1.000000000000000000, 0.0000000000000000000 ) ) ;
#159 = EDGE_LOOP ( 'NONE', ( #174 ) ) ;
#160 = APPROVAL_STATUS ( 'not_yet_approved' ) ;
#161 = DIRECTION ( 'NONE',  ( -3.491481338843133355E-15, 1.224646799147353207E-16, -1.000000000000000000 ) ) ;
#162 = CC_DESIGN_PERSON_AND_ORGANIZATION_ASSIGNMENT ( #200, #70, ( #102 ) ) ;
#163 = VERTEX_POINT ( 'NONE', #13 ) ;
#164 = FACE_OUTER_BOUND ( 'NONE', #138, .T. ) ;
#165 = CLOSED_SHELL ( 'NONE', ( #98, #142, #107, #9 ) ) ;
#166 = LOCAL_TIME ( 14, 47, 9.000000000000000000, #63 ) ;
#167 = DIRECTION ( 'NONE',  ( -3.491481338843133355E-15, 1.224646799147353207E-16, -1.000000000000000000 ) ) ;
#168 = DIRECTION ( 'NONE',  ( 0.0000000000000000000, 1.000000000000000000, 0.0000000000000000000 ) ) ;
#169 = DIRECTION ( 'NONE',  ( 1.000000000000000000, 0.0000000000000000000, 0.0000000000000000000 ) ) ;
#170 = CIRCLE ( 'NONE', #78, 1.200000000000000178 ) ;
#171 = PERSON_AND_ORGANIZATION ( #34, #17 ) ;
#172 = AXIS2_PLACEMENT_3D ( 'NONE', #128, #186, #169 ) ;
#173 = SHAPE_DEFINITION_REPRESENTATION ( #60, #150 ) ;
#174 = ORIENTED_EDGE ( 'NONE', *, *, #129, .T. ) ;
#175 = AXIS2_PLACEMENT_3D ( 'NONE', #41, #125, #76 ) ;
#176 = EDGE_LOOP ( 'NONE', ( #134 ) ) ;
#177 = DIRECTION ( 'NONE',  ( -4.275831445896958607E-31, -1.000000000000000000, -1.224646799147353207E-16 ) ) ;
#178 = PERSON_AND_ORGANIZATION ( #34, #17 ) ;
#179 = CARTESIAN_POINT ( 'NONE',  ( 1.326762908760390423E-13, 1.199999999999995515, 38.00000000000000000 ) ) ;
#180 = CALENDAR_DATE ( 2021, 25, 11 ) ;
#181 = PRODUCT_RELATED_PRODUCT_CATEGORY ( 'detail', '', ( #126 ) ) ;
#182 = FACE_OUTER_BOUND ( 'NONE', #151, .T. ) ;
#183 =( NAMED_UNIT ( * ) PLANE_ANGLE_UNIT ( ) SI_UNIT ( $, .RADIAN. ) );
#184 = AXIS2_PLACEMENT_3D ( 'NONE', #90, #154, #144 ) ;
#185 = DIRECTION ( 'NONE',  ( 4.275831445896958607E-31, 1.000000000000000000, 1.224646799147353207E-16 ) ) ;
#186 = DIRECTION ( 'NONE',  ( 0.0000000000000000000, 0.0000000000000000000, 1.000000000000000000 ) ) ;
#187 = CC_DESIGN_APPROVAL ( #198, ( #1 ) ) ;
#188 = UNCERTAINTY_MEASURE_WITH_UNIT (LENGTH_MEASURE( 1.000000000000000082E-05 ), #85, 'distance_accuracy_value', 'NONE');
#189 = CARTESIAN_POINT ( 'NONE',  ( 1.326762908760390423E-13, 8.998558695971078593E-33, 38.00000000000000000 ) ) ;
#190 = PERSON_AND_ORGANIZATION ( #34, #17 ) ;
#191 = PERSON_AND_ORGANIZATION_ROLE ( 'classification_officer' ) ;
#192 = CC_DESIGN_DATE_AND_TIME_ASSIGNMENT ( #139, #194, ( #1 ) ) ;
#193 = CIRCLE ( 'NONE', #184, 1.500000000000000222 ) ;
#194 = DATE_TIME_ROLE ( 'creation_date' ) ;
#195 = LOCAL_TIME ( 14, 47, 9.000000000000000000, #21 ) ;
#196 = PLANE ( 'NONE',  #120 ) ;
#197 = PERSON_AND_ORGANIZATION ( #34, #17 ) ;
#198 = APPROVAL ( #25, 'UNSPECIFIED' ) ;
#199 = ORIENTED_EDGE ( 'NONE', *, *, #54, .T. ) ;
#200 = PERSON_AND_ORGANIZATION ( #34, #17 ) ;
#201 = CARTESIAN_POINT ( 'NONE',  ( 1.326762908760390423E-13, -4.653657836759941941E-15, 38.00000000000000000 ) ) ;
#202 = DIRECTION ( 'NONE',  ( -3.491481338843133355E-15, 1.224646799147353207E-16, -1.000000000000000000 ) ) ;
#203 = CONICAL_SURFACE ( 'NONE', #19, 1.200000000000000178, 0.7853981633974457255 ) ;
ENDSEC;
END-ISO-10303-21;
