ISO-10303-21;
HEADER;
FILE_DESCRIPTION (( 'STEP AP203' ),
    '1' );
FILE_NAME ('962812.step',
    '2021-11-25T13:47:08',
    ( '' ),
    ( '' ),
    'SwSTEP 2.0',
    'SolidWorks 2019',
    '' );
FILE_SCHEMA (( 'CONFIG_CONTROL_DESIGN' ));
ENDSEC;

DATA;
#1 = CC_DESIGN_PERSON_AND_ORGANIZATION_ASSIGNMENT ( #126, #145, ( #20 ) ) ;
#2 = PERSON_AND_ORGANIZATION ( #93, #121 ) ;
#3 = EDGE_CURVE ( 'NONE', #184, #184, #50, .T. ) ;
#4 = CONICAL_SURFACE ( 'NONE', #94, 1.200000000000000178, 0.7853981633974457255 ) ;
#5 = PRODUCT ( '962812', '962812', '', ( #167 ) ) ;
#6 = DIRECTION ( 'NONE',  ( -4.275831445896958607E-31, -1.000000000000000000, -1.224646799147353207E-16 ) ) ;
#7 = LOCAL_TIME ( 14, 47, 8.000000000000000000, #108 ) ;
#8 = ORIENTED_EDGE ( 'NONE', *, *, #77, .F. ) ;
#9 = ORIENTED_EDGE ( 'NONE', *, *, #77, .T. ) ;
#10 = ORIENTED_EDGE ( 'NONE', *, *, #119, .T. ) ;
#11 = AXIS2_PLACEMENT_3D ( 'NONE', #123, #98, #195 ) ;
#12 = CYLINDRICAL_SURFACE ( 'NONE', #128, 1.499999999999998224 ) ;
#13 = ORIENTED_EDGE ( 'NONE', *, *, #14, .F. ) ;
#14 = EDGE_CURVE ( 'NONE', #140, #140, #201, .T. ) ;
#15 = CARTESIAN_POINT ( 'NONE',  ( -2.365919782978951148E-32, 0.07500000000000001110, -6.776263578034401172E-18 ) ) ;
#16 = DIRECTION ( 'NONE',  ( 0.0000000000000000000, -1.000000000000000000, 0.0000000000000000000 ) ) ;
#17 = VERTEX_POINT ( 'NONE', #142 ) ;
#18 = AXIS2_PLACEMENT_3D ( 'NONE', #169, #28, #16 ) ;
#19 = APPROVAL_STATUS ( 'not_yet_approved' ) ;
#20 = PRODUCT_DEFINITION ( 'UNKNOWN', '', #154, #191 ) ;
#21 = DATE_AND_TIME ( #62, #7 ) ;
#22 = EDGE_LOOP ( 'NONE', ( #133 ) ) ;
#23 = CIRCLE ( 'NONE', #11, 1.499999999999996225 ) ;
#24 = APPLICATION_CONTEXT ( 'configuration controlled 3d designs of mechanical parts and assemblies' ) ;
#25 = FACE_OUTER_BOUND ( 'NONE', #71, .T. ) ;
#26 = CARTESIAN_POINT ( 'NONE',  ( 1.856829969409412347E-14, -6.512882807936096433E-16, 5.318172400785776688 ) ) ;
#27 = EDGE_LOOP ( 'NONE', ( #13 ) ) ;
#28 = DIRECTION ( 'NONE',  ( 3.491481338843133355E-15, -1.224646799147353207E-16, 1.000000000000000000 ) ) ;
#29 = APPLICATION_CONTEXT ( 'configuration controlled 3d designs of mechanical parts and assemblies' ) ;
#30 = FACE_OUTER_BOUND ( 'NONE', #99, .T. ) ;
#31 =( LENGTH_UNIT ( ) NAMED_UNIT ( * ) SI_UNIT ( .MILLI., .METRE. ) );
#32 = CC_DESIGN_PERSON_AND_ORGANIZATION_ASSIGNMENT ( #60, #127, ( #154 ) ) ;
#33 = PERSON_AND_ORGANIZATION_ROLE ( 'classification_officer' ) ;
#34 = LOCAL_TIME ( 14, 47, 8.000000000000000000, #76 ) ;
#35 = APPROVAL_ROLE ( '' ) ;
#36 = ADVANCED_FACE ( 'NONE', ( #69 ), #84, .F. ) ;
#37 = CALENDAR_DATE ( 2021, 25, 11 ) ;
#38 = DIRECTION ( 'NONE',  ( -4.275831445896958607E-31, -1.000000000000000000, -1.224646799147353207E-16 ) ) ;
#39 = DIRECTION ( 'NONE',  ( 0.0000000000000000000, 1.000000000000000000, 0.0000000000000000000 ) ) ;
#40 = CONICAL_SURFACE ( 'NONE', #18, 1.499999999999996225, 0.2617993877991428020 ) ;
#41 = VERTEX_POINT ( 'NONE', #43 ) ;
#42 = CARTESIAN_POINT ( 'NONE',  ( 1.326762908760390423E-13, -4.653657836759941941E-15, 38.00000000000000000 ) ) ;
#43 = CARTESIAN_POINT ( 'NONE',  ( 1.316288464743861212E-13, 1.499999999999995781, 37.69999999999999574 ) ) ;
#44 = CALENDAR_DATE ( 2021, 25, 11 ) ;
#45 = CALENDAR_DATE ( 2021, 25, 11 ) ;
#46 = PLANE ( 'NONE',  #49 ) ;
#47 = DATE_TIME_ROLE ( 'classification_date' ) ;
#48 = CALENDAR_DATE ( 2021, 25, 11 ) ;
#49 = AXIS2_PLACEMENT_3D ( 'NONE', #160, #163, #6 ) ;
#50 = CIRCLE ( 'NONE', #86, 1.200000000000000178 ) ;
#51 = ADVANCED_FACE ( 'NONE', ( #200 ), #138, .F. ) ;
#52 = EDGE_LOOP ( 'NONE', ( #10 ) ) ;
#53 = APPROVAL_ROLE ( '' ) ;
#54 = CARTESIAN_POINT ( 'NONE',  ( 0.0000000000000000000, 0.0000000000000000000, 0.0000000000000000000 ) ) ;
#55 = DIRECTION ( 'NONE',  ( -3.491481338843133355E-15, 1.224646799147353207E-16, -1.000000000000000000 ) ) ;
#56 = APPROVAL_DATE_TIME ( #120, #197 ) ;
#57 = FACE_OUTER_BOUND ( 'NONE', #52, .T. ) ;
#58 = DIRECTION ( 'NONE',  ( 4.275831445896958607E-31, 1.000000000000000000, 1.224646799147353207E-16 ) ) ;
#59 = CARTESIAN_POINT ( 'NONE',  ( -5.572793367401670596E-32, 1.954672787098255621E-33, -1.596111457163954992E-17 ) ) ;
#60 = PERSON_AND_ORGANIZATION ( #93, #121 ) ;
#61 = DATE_TIME_ROLE ( 'creation_date' ) ;
#62 = CALENDAR_DATE ( 2021, 25, 11 ) ;
#63 = AXIS2_PLACEMENT_3D ( 'NONE', #118, #185, #58 ) ;
#64 = EDGE_CURVE ( 'NONE', #17, #17, #23, .T. ) ;
#65 = CC_DESIGN_PERSON_AND_ORGANIZATION_ASSIGNMENT ( #134, #194, ( #5 ) ) ;
#66 = CLOSED_SHELL ( 'NONE', ( #36, #90, #103 ) ) ;
#67 = ORIENTED_EDGE ( 'NONE', *, *, #64, .F. ) ;
#68 = ORIENTED_EDGE ( 'NONE', *, *, #3, .T. ) ;
#69 = FACE_OUTER_BOUND ( 'NONE', #95, .T. ) ;
#70 = VERTEX_POINT ( 'NONE', #105 ) ;
#71 = EDGE_LOOP ( 'NONE', ( #8 ) ) ;
#72 = MANIFOLD_SOLID_BREP ( 'Corps-Déplacer/Copier1[2]', #66 ) ;
#73 = FACE_OUTER_BOUND ( 'NONE', #139, .T. ) ;
#74 = PERSON_AND_ORGANIZATION ( #93, #121 ) ;
#75 = APPROVAL_ROLE ( '' ) ;
#76 = COORDINATED_UNIVERSAL_TIME_OFFSET ( 1, 0, .AHEAD. ) ;
#77 = EDGE_CURVE ( 'NONE', #41, #41, #177, .T. ) ;
#78 = CC_DESIGN_PERSON_AND_ORGANIZATION_ASSIGNMENT ( #74, #91, ( #154 ) ) ;
#79 = ORIENTED_EDGE ( 'NONE', *, *, #14, .T. ) ;
#80 = FACE_BOUND ( 'NONE', #196, .T. ) ;
#81 = APPROVAL_STATUS ( 'not_yet_approved' ) ;
#82 = CARTESIAN_POINT ( 'NONE',  ( 1.326762908760390423E-13, -4.653657836759941941E-15, 38.00000000000000000 ) ) ;
#83 =( NAMED_UNIT ( * ) PLANE_ANGLE_UNIT ( ) SI_UNIT ( $, .RADIAN. ) );
#84 = PLANE ( 'NONE',  #89 ) ;
#85 = DIRECTION ( 'NONE',  ( -3.491481338843133355E-15, 1.224646799147353207E-16, -1.000000000000000000 ) ) ;
#86 = AXIS2_PLACEMENT_3D ( 'NONE', #42, #149, #198 ) ;
#87 = SECURITY_CLASSIFICATION_LEVEL ( 'unclassified' ) ;
#88 = PERSON_AND_ORGANIZATION ( #93, #121 ) ;
#89 = AXIS2_PLACEMENT_3D ( 'NONE', #107, #135, #38 ) ;
#90 = ADVANCED_FACE ( 'NONE', ( #156, #101 ), #40, .T. ) ;
#91 = PERSON_AND_ORGANIZATION_ROLE ( 'creator' ) ;
#92 = FACE_OUTER_BOUND ( 'NONE', #153, .T. ) ;
#93 = PERSON ( 'UNSPECIFIED', 'UNSPECIFIED', 'UNSPECIFIED', ('UNSPECIFIED'), ('UNSPECIFIED'), ('UNSPECIFIED') ) ;
#94 = AXIS2_PLACEMENT_3D ( 'NONE', #82, #199, #122 ) ;
#95 = EDGE_LOOP ( 'NONE', ( #79 ) ) ;
#96 = ADVANCED_FACE ( 'NONE', ( #57 ), #129, .F. ) ;
#97 = DIRECTION ( 'NONE',  ( 1.000000000000000000, 0.0000000000000000000, 0.0000000000000000000 ) ) ;
#98 = DIRECTION ( 'NONE',  ( -3.491481338843133355E-15, 1.224646799147353207E-16, -1.000000000000000000 ) ) ;
#99 = EDGE_LOOP ( 'NONE', ( #102 ) ) ;
#100 = DIRECTION ( 'NONE',  ( -3.491481338843133355E-15, 1.224646799147353207E-16, -1.000000000000000000 ) ) ;
#101 = FACE_OUTER_BOUND ( 'NONE', #151, .T. ) ;
#102 = ORIENTED_EDGE ( 'NONE', *, *, #119, .F. ) ;
#103 = ADVANCED_FACE ( 'NONE', ( #92 ), #46, .T. ) ;
#104 = DIRECTION ( 'NONE',  ( -3.491481338843133355E-15, 1.224646799147353207E-16, -1.000000000000000000 ) ) ;
#105 = CARTESIAN_POINT ( 'NONE',  ( 1.856829969409412347E-14, 1.499999999999995559, 5.318172400785776688 ) ) ;
#106 = CARTESIAN_POINT ( 'NONE',  ( 1.316288464743861212E-13, -4.616918432785521081E-15, 37.69999999999999574 ) ) ;
#107 = CARTESIAN_POINT ( 'NONE',  ( -2.786396683700835298E-32, 9.773363935491278107E-34, -7.980557285819774959E-18 ) ) ;
#108 = COORDINATED_UNIVERSAL_TIME_OFFSET ( 1, 0, .AHEAD. ) ;
#109 = APPROVAL_DATE_TIME ( #21, #162 ) ;
#110 = APPROVAL_STATUS ( 'not_yet_approved' ) ;
#111 = DATE_AND_TIME ( #48, #34 ) ;
#112 = AXIS2_PLACEMENT_3D ( 'NONE', #106, #55, #39 ) ;
#113 = DIRECTION ( 'NONE',  ( 3.491481338843133355E-15, -1.224646799147353207E-16, 1.000000000000000000 ) ) ;
#114 = PRODUCT_DEFINITION_SHAPE ( 'NONE', 'NONE',  #20 ) ;
#115 = CIRCLE ( 'NONE', #165, 1.499999999999996225 ) ;
#116 = LOCAL_TIME ( 14, 47, 8.000000000000000000, #117 ) ;
#117 = COORDINATED_UNIVERSAL_TIME_OFFSET ( 1, 0, .AHEAD. ) ;
#118 = CARTESIAN_POINT ( 'NONE',  ( 1.326762908760390423E-13, 8.998558695971078593E-33, 38.00000000000000000 ) ) ;
#119 = EDGE_CURVE ( 'NONE', #70, #70, #115, .T. ) ;
#120 = DATE_AND_TIME ( #37, #116 ) ;
#121 = ORGANIZATION ( 'UNSPECIFIED', 'UNSPECIFIED', '' ) ;
#122 = DIRECTION ( 'NONE',  ( 0.0000000000000000000, 1.000000000000000000, 0.0000000000000000000 ) ) ;
#123 = CARTESIAN_POINT ( 'NONE',  ( 1.856829969409412347E-14, -6.512882807936096433E-16, 5.318172400785776688 ) ) ;
#124 = PRODUCT_RELATED_PRODUCT_CATEGORY ( 'detail', '', ( #5 ) ) ;
#125 = COORDINATED_UNIVERSAL_TIME_OFFSET ( 1, 0, .AHEAD. ) ;
#126 = PERSON_AND_ORGANIZATION ( #93, #121 ) ;
#127 = PERSON_AND_ORGANIZATION_ROLE ( 'design_supplier' ) ;
#128 = AXIS2_PLACEMENT_3D ( 'NONE', #54, #85, #158 ) ;
#129 = PLANE ( 'NONE',  #143 ) ;
#130 = LOCAL_TIME ( 14, 47, 8.000000000000000000, #176 ) ;
#131 = APPROVAL ( #19, 'UNSPECIFIED' ) ;
#132 = CC_DESIGN_DATE_AND_TIME_ASSIGNMENT ( #161, #61, ( #20 ) ) ;
#133 = ORIENTED_EDGE ( 'NONE', *, *, #3, .F. ) ;
#134 = PERSON_AND_ORGANIZATION ( #93, #121 ) ;
#135 = DIRECTION ( 'NONE',  ( 3.491481338843133355E-15, -1.224646799147353207E-16, 1.000000000000000000 ) ) ;
#136 = APPROVAL_PERSON_ORGANIZATION ( #2, #162, #75 ) ;
#137 = DIRECTION ( 'NONE',  ( 0.0000000000000000000, 0.0000000000000000000, 1.000000000000000000 ) ) ;
#138 = PLANE ( 'NONE',  #63 ) ;
#139 = EDGE_LOOP ( 'NONE', ( #9 ) ) ;
#140 = VERTEX_POINT ( 'NONE', #15 ) ;
#141 = MANIFOLD_SOLID_BREP ( 'Corps-Déplacer/Copier1[1]', #190 ) ;
#142 = CARTESIAN_POINT ( 'NONE',  ( 1.856829969409412347E-14, 1.499999999999995559, 5.318172400785776688 ) ) ;
#143 = AXIS2_PLACEMENT_3D ( 'NONE', #189, #113, #186 ) ;
#144 = ADVANCED_FACE ( 'NONE', ( #30, #73 ), #12, .T. ) ;
#145 = PERSON_AND_ORGANIZATION_ROLE ( 'creator' ) ;
#146 = SECURITY_CLASSIFICATION ( '', '', #87 ) ;
#147 = DATE_AND_TIME ( #45, #174 ) ;
#148 =( GEOMETRIC_REPRESENTATION_CONTEXT ( 3 ) GLOBAL_UNCERTAINTY_ASSIGNED_CONTEXT ( ( #164 ) ) GLOBAL_UNIT_ASSIGNED_CONTEXT ( ( #31, #83, #182 ) ) REPRESENTATION_CONTEXT ( 'NONE', 'WORKASPACE' ) );
#149 = DIRECTION ( 'NONE',  ( -3.491481338843133355E-15, 1.224646799147353207E-16, -1.000000000000000000 ) ) ;
#150 = CC_DESIGN_APPROVAL ( #162, ( #146 ) ) ;
#151 = EDGE_LOOP ( 'NONE', ( #166 ) ) ;
#152 = CARTESIAN_POINT ( 'NONE',  ( 0.0000000000000000000, 0.0000000000000000000, 0.0000000000000000000 ) ) ;
#153 = EDGE_LOOP ( 'NONE', ( #67 ) ) ;
#154 = PRODUCT_DEFINITION_FORMATION_WITH_SPECIFIED_SOURCE ( 'ANY', '', #5, .NOT_KNOWN. ) ;
#155 = CARTESIAN_POINT ( 'NONE',  ( 1.326762908760390423E-13, 1.199999999999995515, 38.00000000000000000 ) ) ;
#156 = FACE_BOUND ( 'NONE', #27, .T. ) ;
#157 = DIRECTION ( 'NONE',  ( 0.0000000000000000000, 1.000000000000000000, 0.0000000000000000000 ) ) ;
#158 = DIRECTION ( 'NONE',  ( 4.275831445896958607E-31, 1.000000000000000000, 1.224646799147353207E-16 ) ) ;
#159 = APPROVAL_PERSON_ORGANIZATION ( #187, #131, #35 ) ;
#160 = CARTESIAN_POINT ( 'NONE',  ( 1.856829969409412347E-14, 1.124819836996389511E-32, 5.318172400785776688 ) ) ;
#161 = DATE_AND_TIME ( #44, #130 ) ;
#162 = APPROVAL ( #110, 'UNSPECIFIED' ) ;
#163 = DIRECTION ( 'NONE',  ( 3.491481338843133355E-15, -1.224646799147353207E-16, 1.000000000000000000 ) ) ;
#164 = UNCERTAINTY_MEASURE_WITH_UNIT (LENGTH_MEASURE( 1.000000000000000082E-05 ), #31, 'distance_accuracy_value', 'NONE');
#165 = AXIS2_PLACEMENT_3D ( 'NONE', #26, #100, #157 ) ;
#166 = ORIENTED_EDGE ( 'NONE', *, *, #64, .T. ) ;
#167 = MECHANICAL_CONTEXT ( 'NONE', #24, 'mechanical' ) ;
#168 = PERSON_AND_ORGANIZATION ( #93, #121 ) ;
#169 = CARTESIAN_POINT ( 'NONE',  ( 1.856829969409412347E-14, -6.512882807936096433E-16, 5.318172400785776688 ) ) ;
#170 = APPROVAL_PERSON_ORGANIZATION ( #168, #197, #53 ) ;
#171 = ADVANCED_FACE ( 'NONE', ( #25, #80 ), #4, .T. ) ;
#172 = DIRECTION ( 'NONE',  ( 4.275831445896958607E-31, 1.000000000000000000, 1.224646799147352961E-16 ) ) ;
#173 = SHAPE_DEFINITION_REPRESENTATION ( #114, #188 ) ;
#174 = LOCAL_TIME ( 14, 47, 8.000000000000000000, #125 ) ;
#175 = CC_DESIGN_APPROVAL ( #131, ( #154 ) ) ;
#176 = COORDINATED_UNIVERSAL_TIME_OFFSET ( 1, 0, .AHEAD. ) ;
#177 = CIRCLE ( 'NONE', #112, 1.500000000000000222 ) ;
#178 = CC_DESIGN_SECURITY_CLASSIFICATION ( #146, ( #154 ) ) ;
#179 = CC_DESIGN_APPROVAL ( #197, ( #20 ) ) ;
#180 = AXIS2_PLACEMENT_3D ( 'NONE', #152, #137, #97 ) ;
#181 = APPLICATION_PROTOCOL_DEFINITION ( 'international standard', 'config_control_design', 1994, #29 ) ;
#182 =( NAMED_UNIT ( * ) SI_UNIT ( $, .STERADIAN. ) SOLID_ANGLE_UNIT ( ) );
#183 = CC_DESIGN_PERSON_AND_ORGANIZATION_ASSIGNMENT ( #88, #33, ( #146 ) ) ;
#184 = VERTEX_POINT ( 'NONE', #155 ) ;
#185 = DIRECTION ( 'NONE',  ( -3.491481338843133355E-15, 1.224646799147353207E-16, -1.000000000000000000 ) ) ;
#186 = DIRECTION ( 'NONE',  ( -4.275831445896958607E-31, -1.000000000000000000, -1.224646799147353207E-16 ) ) ;
#187 = PERSON_AND_ORGANIZATION ( #93, #121 ) ;
#188 = ADVANCED_BREP_SHAPE_REPRESENTATION ( '962812', ( #141, #72, #180 ), #148 ) ;
#189 = CARTESIAN_POINT ( 'NONE',  ( 1.856829969409412347E-14, 1.124819836996389511E-32, 5.318172400785776688 ) ) ;
#190 = CLOSED_SHELL ( 'NONE', ( #96, #144, #171, #51 ) ) ;
#191 = DESIGN_CONTEXT ( 'detailed design', #29, 'design' ) ;
#192 = CC_DESIGN_DATE_AND_TIME_ASSIGNMENT ( #147, #47, ( #146 ) ) ;
#193 = AXIS2_PLACEMENT_3D ( 'NONE', #59, #104, #172 ) ;
#194 = PERSON_AND_ORGANIZATION_ROLE ( 'design_owner' ) ;
#195 = DIRECTION ( 'NONE',  ( 0.0000000000000000000, 1.000000000000000000, 0.0000000000000000000 ) ) ;
#196 = EDGE_LOOP ( 'NONE', ( #68 ) ) ;
#197 = APPROVAL ( #81, 'UNSPECIFIED' ) ;
#198 = DIRECTION ( 'NONE',  ( 0.0000000000000000000, 1.000000000000000000, 0.0000000000000000000 ) ) ;
#199 = DIRECTION ( 'NONE',  ( -3.491481338843133355E-15, 1.224646799147353207E-16, -1.000000000000000000 ) ) ;
#200 = FACE_OUTER_BOUND ( 'NONE', #22, .T. ) ;
#201 = CIRCLE ( 'NONE', #193, 0.07500000000000001110 ) ;
#202 = APPLICATION_PROTOCOL_DEFINITION ( 'international standard', 'config_control_design', 1994, #24 ) ;
#203 = APPROVAL_DATE_TIME ( #111, #131 ) ;
ENDSEC;
END-ISO-10303-21;
