ISO-10303-21;
HEADER;
FILE_DESCRIPTION (( 'STEP AP203' ),
    '1' );
FILE_NAME ('962626.step',
    '2021-11-29T14:49:36',
    ( '' ),
    ( '' ),
    'SwSTEP 2.0',
    'SolidWorks 2019',
    '' );
FILE_SCHEMA (( 'CONFIG_CONTROL_DESIGN' ));
ENDSEC;

DATA;
#1 = FACE_OUTER_BOUND ( 'NONE', #95, .T. ) ;
#2 = VERTEX_POINT ( 'NONE', #141 ) ;
#3 = DIRECTION ( 'NONE',  ( -3.491481338843133355E-15, 1.224646799147352961E-16, -1.000000000000000000 ) ) ;
#4 = FACE_OUTER_BOUND ( 'NONE', #193, .T. ) ;
#5 = CC_DESIGN_SECURITY_CLASSIFICATION ( #88, ( #271 ) ) ;
#6 = FACE_OUTER_BOUND ( 'NONE', #118, .T. ) ;
#7 = CARTESIAN_POINT ( 'NONE',  ( 1.326762908760390423E-13, -4.653657836759941152E-15, 38.00000000000000000 ) ) ;
#8 = COORDINATED_UNIVERSAL_TIME_OFFSET ( 1, 0, .AHEAD. ) ;
#9 = PERSON_AND_ORGANIZATION_ROLE ( 'classification_officer' ) ;
#10 = FACE_OUTER_BOUND ( 'NONE', #86, .T. ) ;
#11 = CARTESIAN_POINT ( 'NONE',  ( 1.316288464743861212E-13, 1.499999999999998668, 37.69999999999999574 ) ) ;
#12 = DIRECTION ( 'NONE',  ( 4.275831445896958607E-31, 1.000000000000000000, 1.224646799147353207E-16 ) ) ;
#13 = APPLICATION_PROTOCOL_DEFINITION ( 'international standard', 'config_control_design', 1994, #225 ) ;
#14 = CIRCLE ( 'NONE', #190, 0.5234999999999994102 ) ;
#15 = CIRCLE ( 'NONE', #114, 0.4649999999999996914 ) ;
#16 = VERTEX_POINT ( 'NONE', #252 ) ;
#17 = ADVANCED_FACE ( 'NONE', ( #288 ), #198, .F. ) ;
#18 = EDGE_LOOP ( 'NONE', ( #216 ) ) ;
#19 = DIRECTION ( 'NONE',  ( -3.491481338843133355E-15, 1.224646799147352961E-16, -1.000000000000000000 ) ) ;
#20 = EDGE_LOOP ( 'NONE', ( #70 ) ) ;
#21 = ORIENTED_EDGE ( 'NONE', *, *, #154, .T. ) ;
#22 = CC_DESIGN_APPROVAL ( #201, ( #209 ) ) ;
#23 = ADVANCED_FACE ( 'NONE', ( #35, #10 ), #233, .T. ) ;
#24 = ORIENTED_EDGE ( 'NONE', *, *, #106, .T. ) ;
#25 = EDGE_LOOP ( 'NONE', ( #21 ) ) ;
#26 = AXIS2_PLACEMENT_3D ( 'NONE', #83, #103, #54 ) ;
#27 = FACE_BOUND ( 'NONE', #215, .T. ) ;
#28 = FACE_OUTER_BOUND ( 'NONE', #192, .T. ) ;
#29 = DIRECTION ( 'NONE',  ( -3.491481338843133355E-15, 1.224646799147352961E-16, -1.000000000000000000 ) ) ;
#30 = CARTESIAN_POINT ( 'NONE',  ( -1.756985239617853221E-31, 6.162674638725373510E-33, -5.032205729044544499E-17 ) ) ;
#31 = CYLINDRICAL_SURFACE ( 'NONE', #265, 0.5234999999999997433 ) ;
#32 = CALENDAR_DATE ( 2021, 29, 11 ) ;
#33 = AXIS2_PLACEMENT_3D ( 'NONE', #7, #196, #123 ) ;
#34 = DATE_TIME_ROLE ( 'classification_date' ) ;
#35 = FACE_BOUND ( 'NONE', #236, .T. ) ;
#36 = CALENDAR_DATE ( 2021, 29, 11 ) ;
#37 = PERSON_AND_ORGANIZATION_ROLE ( 'creator' ) ;
#38 = CALENDAR_DATE ( 2021, 29, 11 ) ;
#39 = CC_DESIGN_DATE_AND_TIME_ASSIGNMENT ( #63, #133, ( #209 ) ) ;
#40 = VERTEX_POINT ( 'NONE', #142 ) ;
#41 = AXIS2_PLACEMENT_3D ( 'NONE', #181, #228, #263 ) ;
#42 = APPROVAL ( #157, 'UNSPECIFIED' ) ;
#43 = CIRCLE ( 'NONE', #240, 1.500000000000003331 ) ;
#44 = EDGE_LOOP ( 'NONE', ( #89 ) ) ;
#45 = AXIS2_PLACEMENT_3D ( 'NONE', #177, #125, #244 ) ;
#46 = ADVANCED_FACE ( 'NONE', ( #4, #159 ), #31, .T. ) ;
#47 = MANIFOLD_SOLID_BREP ( 'Corps-Déplacer/Copier1[2]', #277 ) ;
#48 = EDGE_LOOP ( 'NONE', ( #173 ) ) ;
#49 = PRODUCT ( '962626', '962626', '', ( #255 ) ) ;
#50 = ADVANCED_BREP_SHAPE_REPRESENTATION ( '962626', ( #275, #47, #147 ), #266 ) ;
#51 = AXIS2_PLACEMENT_3D ( 'NONE', #126, #281, #200 ) ;
#52 = AXIS2_PLACEMENT_3D ( 'NONE', #139, #208, #73 ) ;
#53 = DIRECTION ( 'NONE',  ( -3.491481338843133355E-15, 1.224646799147352961E-16, -1.000000000000000000 ) ) ;
#54 = DIRECTION ( 'NONE',  ( 0.0000000000000000000, 1.000000000000000000, 0.0000000000000000000 ) ) ;
#55 = CARTESIAN_POINT ( 'NONE',  ( 0.0000000000000000000, 0.0000000000000000000, 0.0000000000000000000 ) ) ;
#56 = DIRECTION ( 'NONE',  ( -3.491481338843133355E-15, 1.224646799147352961E-16, -1.000000000000000000 ) ) ;
#57 = COORDINATED_UNIVERSAL_TIME_OFFSET ( 1, 0, .AHEAD. ) ;
#58 = DIRECTION ( 'NONE',  ( 3.678949272946013395E-31, 1.000000000000000000, 1.035532160922163944E-16 ) ) ;
#59 = DIRECTION ( 'NONE',  ( -3.678949272946013395E-31, -1.000000000000000000, -1.035532160922163944E-16 ) ) ;
#60 = COORDINATED_UNIVERSAL_TIME_OFFSET ( 1, 0, .AHEAD. ) ;
#61 =( NAMED_UNIT ( * ) SI_UNIT ( $, .STERADIAN. ) SOLID_ANGLE_UNIT ( ) );
#62 = CYLINDRICAL_SURFACE ( 'NONE', #117, 0.4650000000000001354 ) ;
#63 = DATE_AND_TIME ( #185, #295 ) ;
#64 = EDGE_CURVE ( 'NONE', #287, #287, #92, .T. ) ;
#65 = VERTEX_POINT ( 'NONE', #292 ) ;
#66 = DIRECTION ( 'NONE',  ( -3.491481338843133355E-15, 1.224646799147352961E-16, -1.000000000000000000 ) ) ;
#67 = CC_DESIGN_APPROVAL ( #243, ( #271 ) ) ;
#68 = CIRCLE ( 'NONE', #291, 0.4650000000000006350 ) ;
#69 = CARTESIAN_POINT ( 'NONE',  ( -3.513970479235706442E-31, 1.232534927745074702E-32, -1.006441145808908900E-16 ) ) ;
#70 = ORIENTED_EDGE ( 'NONE', *, *, #90, .F. ) ;
#71 = AXIS2_PLACEMENT_3D ( 'NONE', #274, #66, #294 ) ;
#72 = CC_DESIGN_DATE_AND_TIME_ASSIGNMENT ( #199, #34, ( #88 ) ) ;
#73 = DIRECTION ( 'NONE',  ( 0.0000000000000000000, -1.000000000000000000, 0.0000000000000000000 ) ) ;
#74 = CARTESIAN_POINT ( 'NONE',  ( 1.326762908760390423E-13, -4.653657836759941152E-15, 38.00000000000000000 ) ) ;
#75 = CARTESIAN_POINT ( 'NONE',  ( 8.728703347107831416E-16, -3.061616997868381785E-17, 0.2499999999999999445 ) ) ;
#76 = PERSON ( 'UNSPECIFIED', 'UNSPECIFIED', 'UNSPECIFIED', ('UNSPECIFIED'), ('UNSPECIFIED'), ('UNSPECIFIED') ) ;
#77 = ADVANCED_FACE ( 'NONE', ( #217, #176 ), #301, .F. ) ;
#78 = FACE_OUTER_BOUND ( 'NONE', #20, .T. ) ;
#79 = DIRECTION ( 'NONE',  ( 4.275831445896957731E-31, 1.000000000000000000, 1.224646799147352961E-16 ) ) ;
#80 = CARTESIAN_POINT ( 'NONE',  ( 3.961887347097082447E-14, 0.4953844939755802645, 11.34729635533384595 ) ) ;
#81 = DIRECTION ( 'NONE',  ( 0.0000000000000000000, 1.000000000000000000, 0.0000000000000000000 ) ) ;
#82 = APPROVAL_ROLE ( '' ) ;
#83 = CARTESIAN_POINT ( 'NONE',  ( 1.745740669421566678E-14, -6.123233995736765296E-16, 5.000000000000000000 ) ) ;
#84 = APPROVAL_DATE_TIME ( #290, #201 ) ;
#85 = CARTESIAN_POINT ( 'NONE',  ( 1.745740669421566678E-14, 0.5234999999999994102, 5.000000000000000000 ) ) ;
#86 = EDGE_LOOP ( 'NONE', ( #24 ) ) ;
#87 = CC_DESIGN_PERSON_AND_ORGANIZATION_ASSIGNMENT ( #163, #140, ( #209 ) ) ;
#88 = SECURITY_CLASSIFICATION ( '', '', #285 ) ;
#89 = ORIENTED_EDGE ( 'NONE', *, *, #154, .F. ) ;
#90 = EDGE_CURVE ( 'NONE', #232, #232, #171, .T. ) ;
#91 = EDGE_LOOP ( 'NONE', ( #144 ) ) ;
#92 = CIRCLE ( 'NONE', #146, 0.4953844939755816523 ) ;
#93 = AXIS2_PLACEMENT_3D ( 'NONE', #131, #227, #222 ) ;
#94 = AXIS2_PLACEMENT_3D ( 'NONE', #246, #156, #59 ) ;
#95 = EDGE_LOOP ( 'NONE', ( #299 ) ) ;
#96 = PERSON_AND_ORGANIZATION_ROLE ( 'design_owner' ) ;
#97 = CARTESIAN_POINT ( 'NONE',  ( 3.840629472727446691E-14, -1.301042606982605321E-15, 11.00000000000000000 ) ) ;
#98 = DIRECTION ( 'NONE',  ( -3.491481338843133355E-15, 1.224646799147352961E-16, -1.000000000000000000 ) ) ;
#99 = CC_DESIGN_PERSON_AND_ORGANIZATION_ASSIGNMENT ( #128, #245, ( #271 ) ) ;
#100 = CALENDAR_DATE ( 2021, 29, 11 ) ;
#101 = CONICAL_SURFACE ( 'NONE', #52, 1.499999999999997558, 0.1745329251994261477 ) ;
#102 = PLANE ( 'NONE',  #51 ) ;
#103 = DIRECTION ( 'NONE',  ( -3.491481338843133355E-15, 1.224646799147352961E-16, -1.000000000000000000 ) ) ;
#104 = APPROVAL_STATUS ( 'not_yet_approved' ) ;
#105 = COORDINATED_UNIVERSAL_TIME_OFFSET ( 1, 0, .AHEAD. ) ;
#106 = EDGE_CURVE ( 'NONE', #16, #16, #14, .T. ) ;
#107 = DIRECTION ( 'NONE',  ( 0.0000000000000000000, 1.000000000000000000, 0.0000000000000000000 ) ) ;
#108 = APPROVAL_ROLE ( '' ) ;
#109 = DIRECTION ( 'NONE',  ( 0.0000000000000000000, 1.000000000000000000, 0.0000000000000000000 ) ) ;
#110 = CONICAL_SURFACE ( 'NONE', #247, 1.200000000000003286, 0.7853981633974453924 ) ;
#111 = VERTEX_POINT ( 'NONE', #170 ) ;
#112 = ORIENTED_EDGE ( 'NONE', *, *, #249, .T. ) ;
#113 = ADVANCED_FACE ( 'NONE', ( #178 ), #102, .F. ) ;
#114 = AXIS2_PLACEMENT_3D ( 'NONE', #280, #167, #109 ) ;
#115 = ADVANCED_FACE ( 'NONE', ( #256 ), #223, .F. ) ;
#116 = DIRECTION ( 'NONE',  ( 1.000000000000000000, 0.0000000000000000000, 0.0000000000000000000 ) ) ;
#117 = AXIS2_PLACEMENT_3D ( 'NONE', #55, #3, #250 ) ;
#118 = EDGE_LOOP ( 'NONE', ( #278 ) ) ;
#119 = ORIENTED_EDGE ( 'NONE', *, *, #64, .F. ) ;
#120 = EDGE_LOOP ( 'NONE', ( #218 ) ) ;
#121 = AXIS2_PLACEMENT_3D ( 'NONE', #97, #239, #79 ) ;
#122 = APPROVAL_PERSON_ORGANIZATION ( #182, #201, #108 ) ;
#123 = DIRECTION ( 'NONE',  ( 0.0000000000000000000, 1.000000000000000000, 0.0000000000000000000 ) ) ;
#124 = EDGE_CURVE ( 'NONE', #186, #186, #214, .T. ) ;
#125 = DIRECTION ( 'NONE',  ( -3.491481338843133355E-15, 1.224646799147352961E-16, -1.000000000000000000 ) ) ;
#126 = CARTESIAN_POINT ( 'NONE',  ( 1.745740669421566678E-14, 3.925621231117401396E-33, 5.000000000000000000 ) ) ;
#127 = DIRECTION ( 'NONE',  ( 0.0000000000000000000, 1.000000000000000000, 0.0000000000000000000 ) ) ;
#128 = PERSON_AND_ORGANIZATION ( #76, #259 ) ;
#129 = CIRCLE ( 'NONE', #45, 1.499999999999997558 ) ;
#130 = CLOSED_SHELL ( 'NONE', ( #113, #135, #286, #77, #296, #175, #161, #115 ) ) ;
#131 = CARTESIAN_POINT ( 'NONE',  ( 1.745740669421566678E-14, 3.925621231117401396E-33, 5.000000000000000000 ) ) ;
#132 = DIRECTION ( 'NONE',  ( -3.491481338843133355E-15, 1.224646799147352961E-16, -1.000000000000000000 ) ) ;
#133 = DATE_TIME_ROLE ( 'creation_date' ) ;
#134 =( NAMED_UNIT ( * ) PLANE_ANGLE_UNIT ( ) SI_UNIT ( $, .RADIAN. ) );
#135 = ADVANCED_FACE ( 'NONE', ( #180, #289 ), #282, .T. ) ;
#136 = FACE_OUTER_BOUND ( 'NONE', #162, .T. ) ;
#137 = CARTESIAN_POINT ( 'NONE',  ( 1.745740669421566678E-14, -6.123233995736765296E-16, 5.000000000000000000 ) ) ;
#138 = APPROVAL_STATUS ( 'not_yet_approved' ) ;
#139 = CARTESIAN_POINT ( 'NONE',  ( 5.951144055233099368E-14, -2.087380344103695792E-15, 17.04475401035638882 ) ) ;
#140 = PERSON_AND_ORGANIZATION_ROLE ( 'creator' ) ;
#141 = CARTESIAN_POINT ( 'NONE',  ( 5.951144055233099368E-14, 1.499999999999995559, 17.04475401035638882 ) ) ;
#142 = CARTESIAN_POINT ( 'NONE',  ( 3.840629472727446691E-14, 0.4649999999999992473, 11.00000000000000000 ) ) ;
#143 = APPROVAL_PERSON_ORGANIZATION ( #205, #42, #82 ) ;
#144 = ORIENTED_EDGE ( 'NONE', *, *, #195, .T. ) ;
#145 = APPLICATION_PROTOCOL_DEFINITION ( 'international standard', 'config_control_design', 1994, #229 ) ;
#146 = AXIS2_PLACEMENT_3D ( 'NONE', #203, #132, #81 ) ;
#147 = AXIS2_PLACEMENT_3D ( 'NONE', #150, #149, #116 ) ;
#148 = EDGE_CURVE ( 'NONE', #40, #40, #68, .T. ) ;
#149 = DIRECTION ( 'NONE',  ( 0.0000000000000000000, 0.0000000000000000000, 1.000000000000000000 ) ) ;
#150 = CARTESIAN_POINT ( 'NONE',  ( 0.0000000000000000000, 0.0000000000000000000, 0.0000000000000000000 ) ) ;
#151 = CC_DESIGN_APPROVAL ( #42, ( #88 ) ) ;
#152 = EDGE_LOOP ( 'NONE', ( #112 ) ) ;
#153 = CARTESIAN_POINT ( 'NONE',  ( 1.781118094396013289E-14, -6.247321298667579496E-16, 5.101324972242780476 ) ) ;
#154 = EDGE_CURVE ( 'NONE', #111, #111, #172, .T. ) ;
#155 = AXIS2_PLACEMENT_3D ( 'NONE', #69, #19, #12 ) ;
#156 = DIRECTION ( 'NONE',  ( 3.491481338843133355E-15, -1.224646799147352961E-16, 1.000000000000000000 ) ) ;
#157 = APPROVAL_STATUS ( 'not_yet_approved' ) ;
#158 = DESIGN_CONTEXT ( 'detailed design', #225, 'design' ) ;
#159 = FACE_OUTER_BOUND ( 'NONE', #18, .T. ) ;
#160 = VERTEX_POINT ( 'NONE', #219 ) ;
#161 = ADVANCED_FACE ( 'NONE', ( #1, #27 ), #110, .T. ) ;
#162 = EDGE_LOOP ( 'NONE', ( #191 ) ) ;
#163 = PERSON_AND_ORGANIZATION ( #76, #259 ) ;
#164 = PRODUCT_DEFINITION_SHAPE ( 'NONE', 'NONE',  #209 ) ;
#165 = APPROVAL_PERSON_ORGANIZATION ( #224, #243, #264 ) ;
#166 = DIRECTION ( 'NONE',  ( -4.275831445896957731E-31, -1.000000000000000000, -1.224646799147352961E-16 ) ) ;
#167 = DIRECTION ( 'NONE',  ( -3.491481338843133355E-15, 1.224646799147352961E-16, -1.000000000000000000 ) ) ;
#168 = APPROVAL_DATE_TIME ( #267, #243 ) ;
#169 = APPROVAL_DATE_TIME ( #242, #42 ) ;
#170 = CARTESIAN_POINT ( 'NONE',  ( 1.745740669421566678E-14, 0.5234999999999994102, 5.000000000000000000 ) ) ;
#171 = CIRCLE ( 'NONE', #273, 0.5235000000000000764 ) ;
#172 = CIRCLE ( 'NONE', #26, 0.5235000000000000764 ) ;
#173 = ORIENTED_EDGE ( 'NONE', *, *, #272, .F. ) ;
#174 = ORIENTED_EDGE ( 'NONE', *, *, #106, .F. ) ;
#175 = ADVANCED_FACE ( 'NONE', ( #234, #189 ), #270, .T. ) ;
#176 = FACE_OUTER_BOUND ( 'NONE', #303, .T. ) ;
#177 = CARTESIAN_POINT ( 'NONE',  ( 5.951144055233099368E-14, -2.087380344103695792E-15, 17.04475401035638882 ) ) ;
#178 = FACE_OUTER_BOUND ( 'NONE', #25, .T. ) ;
#179 = PLANE ( 'NONE',  #93 ) ;
#180 = FACE_OUTER_BOUND ( 'NONE', #44, .T. ) ;
#181 = CARTESIAN_POINT ( 'NONE',  ( 1.326762908760390423E-13, 8.998558695971099120E-33, 38.00000000000000000 ) ) ;
#182 = PERSON_AND_ORGANIZATION ( #76, #259 ) ;
#183 = CIRCLE ( 'NONE', #155, 0.3791624327025950314 ) ;
#184 = CARTESIAN_POINT ( 'NONE',  ( 1.316288464743861212E-13, -4.616918432785520292E-15, 37.69999999999999574 ) ) ;
#185 = CALENDAR_DATE ( 2021, 29, 11 ) ;
#186 = VERTEX_POINT ( 'NONE', #269 ) ;
#187 = PRODUCT_RELATED_PRODUCT_CATEGORY ( 'detail', '', ( #49 ) ) ;
#188 = ORIENTED_EDGE ( 'NONE', *, *, #64, .T. ) ;
#189 = FACE_OUTER_BOUND ( 'NONE', #120, .T. ) ;
#190 = AXIS2_PLACEMENT_3D ( 'NONE', #75, #284, #58 ) ;
#191 = ORIENTED_EDGE ( 'NONE', *, *, #249, .F. ) ;
#192 = EDGE_LOOP ( 'NONE', ( #210 ) ) ;
#193 = EDGE_LOOP ( 'NONE', ( #174 ) ) ;
#194 = AXIS2_PLACEMENT_3D ( 'NONE', #30, #248, #166 ) ;
#195 = EDGE_CURVE ( 'NONE', #65, #65, #183, .T. ) ;
#196 = DIRECTION ( 'NONE',  ( -3.491481338843133355E-15, 1.224646799147352961E-16, -1.000000000000000000 ) ) ;
#197 = SHAPE_DEFINITION_REPRESENTATION ( #164, #50 ) ;
#198 = PLANE ( 'NONE',  #194 ) ;
#199 = DATE_AND_TIME ( #38, #258 ) ;
#200 = DIRECTION ( 'NONE',  ( -4.275831445896957731E-31, -1.000000000000000000, -1.224646799147352961E-16 ) ) ;
#201 = APPROVAL ( #138, 'UNSPECIFIED' ) ;
#202 = DIRECTION ( 'NONE',  ( 0.0000000000000000000, 1.000000000000000000, 0.0000000000000000000 ) ) ;
#203 = CARTESIAN_POINT ( 'NONE',  ( 3.961887347097082447E-14, -1.389643016053601920E-15, 11.34729635533384595 ) ) ;
#204 = COORDINATED_UNIVERSAL_TIME_OFFSET ( 1, 0, .AHEAD. ) ;
#205 = PERSON_AND_ORGANIZATION ( #76, #259 ) ;
#206 = ORIENTED_EDGE ( 'NONE', *, *, #124, .F. ) ;
#207 = LOCAL_TIME ( 15, 49, 36.00000000000000000, #60 ) ;
#208 = DIRECTION ( 'NONE',  ( 3.491481338843133355E-15, -1.224646799147352961E-16, 1.000000000000000000 ) ) ;
#209 = PRODUCT_DEFINITION ( 'UNKNOWN', '', #271, #158 ) ;
#210 = ORIENTED_EDGE ( 'NONE', *, *, #148, .T. ) ;
#211 = EDGE_LOOP ( 'NONE', ( #206 ) ) ;
#212 = DIRECTION ( 'NONE',  ( 0.0000000000000000000, 1.000000000000000000, 0.0000000000000000000 ) ) ;
#213 = ORIENTED_EDGE ( 'NONE', *, *, #195, .F. ) ;
#214 = CIRCLE ( 'NONE', #33, 1.200000000000003286 ) ;
#215 = EDGE_LOOP ( 'NONE', ( #293 ) ) ;
#216 = ORIENTED_EDGE ( 'NONE', *, *, #90, .T. ) ;
#217 = FACE_OUTER_BOUND ( 'NONE', #238, .T. ) ;
#218 = ORIENTED_EDGE ( 'NONE', *, *, #230, .T. ) ;
#219 = CARTESIAN_POINT ( 'NONE',  ( 1.781118094396013289E-14, 0.4649999999999990252, 5.101324972242780476 ) ) ;
#220 = DIRECTION ( 'NONE',  ( 4.275831445896957731E-31, 1.000000000000000000, 1.224646799147353207E-16 ) ) ;
#221 = VERTEX_POINT ( 'NONE', #11 ) ;
#222 = DIRECTION ( 'NONE',  ( -4.275831445896957731E-31, -1.000000000000000000, -1.224646799147352961E-16 ) ) ;
#223 = PLANE ( 'NONE',  #41 ) ;
#224 = PERSON_AND_ORGANIZATION ( #76, #259 ) ;
#225 = APPLICATION_CONTEXT ( 'configuration controlled 3d designs of mechanical parts and assemblies' ) ;
#226 = PERSON_AND_ORGANIZATION ( #76, #259 ) ;
#227 = DIRECTION ( 'NONE',  ( 3.491481338843133355E-15, -1.224646799147352961E-16, 1.000000000000000000 ) ) ;
#228 = DIRECTION ( 'NONE',  ( -3.491481338843133355E-15, 1.224646799147352961E-16, -1.000000000000000000 ) ) ;
#229 = APPLICATION_CONTEXT ( 'configuration controlled 3d designs of mechanical parts and assemblies' ) ;
#230 = EDGE_CURVE ( 'NONE', #221, #221, #43, .T. ) ;
#231 = AXIS2_PLACEMENT_3D ( 'NONE', #153, #261, #257 ) ;
#232 = VERTEX_POINT ( 'NONE', #85 ) ;
#233 = CONICAL_SURFACE ( 'NONE', #94, 0.5234999999999994102, 0.5235987755982925984 ) ;
#234 = FACE_OUTER_BOUND ( 'NONE', #48, .T. ) ;
#235 = CC_DESIGN_PERSON_AND_ORGANIZATION_ASSIGNMENT ( #226, #9, ( #88 ) ) ;
#236 = EDGE_LOOP ( 'NONE', ( #213 ) ) ;
#237 = CC_DESIGN_PERSON_AND_ORGANIZATION_ASSIGNMENT ( #251, #37, ( #271 ) ) ;
#238 = EDGE_LOOP ( 'NONE', ( #297 ) ) ;
#239 = DIRECTION ( 'NONE',  ( -3.491481338843133355E-15, 1.224646799147352961E-16, -1.000000000000000000 ) ) ;
#240 = AXIS2_PLACEMENT_3D ( 'NONE', #184, #53, #202 ) ;
#241 = CARTESIAN_POINT ( 'NONE',  ( 0.0000000000000000000, 0.0000000000000000000, 0.0000000000000000000 ) ) ;
#242 = DATE_AND_TIME ( #100, #298 ) ;
#243 = APPROVAL ( #104, 'UNSPECIFIED' ) ;
#244 = DIRECTION ( 'NONE',  ( 0.0000000000000000000, 1.000000000000000000, 0.0000000000000000000 ) ) ;
#245 = PERSON_AND_ORGANIZATION_ROLE ( 'design_supplier' ) ;
#246 = CARTESIAN_POINT ( 'NONE',  ( 8.728703347107831416E-16, -3.061616997868381785E-17, 0.2499999999999999445 ) ) ;
#247 = AXIS2_PLACEMENT_3D ( 'NONE', #74, #98, #212 ) ;
#248 = DIRECTION ( 'NONE',  ( 3.491481338843133355E-15, -1.224646799147352961E-16, 1.000000000000000000 ) ) ;
#249 = EDGE_CURVE ( 'NONE', #160, #160, #15, .T. ) ;
#250 = DIRECTION ( 'NONE',  ( 4.275831445896957731E-31, 1.000000000000000000, 1.224646799147352961E-16 ) ) ;
#251 = PERSON_AND_ORGANIZATION ( #76, #259 ) ;
#252 = CARTESIAN_POINT ( 'NONE',  ( 8.728703347107833388E-16, 0.5234999999999994102, 0.2500000000000000000 ) ) ;
#253 = CC_DESIGN_PERSON_AND_ORGANIZATION_ASSIGNMENT ( #254, #96, ( #49 ) ) ;
#254 = PERSON_AND_ORGANIZATION ( #76, #259 ) ;
#255 = MECHANICAL_CONTEXT ( 'NONE', #229, 'mechanical' ) ;
#256 = FACE_OUTER_BOUND ( 'NONE', #211, .T. ) ;
#257 = DIRECTION ( 'NONE',  ( 0.0000000000000000000, 1.000000000000000000, 0.0000000000000000000 ) ) ;
#258 = LOCAL_TIME ( 15, 49, 36.00000000000000000, #105 ) ;
#259 = ORGANIZATION ( 'UNSPECIFIED', 'UNSPECIFIED', '' ) ;
#260 = UNCERTAINTY_MEASURE_WITH_UNIT (LENGTH_MEASURE( 1.000000000000000082E-05 ), #268, 'distance_accuracy_value', 'NONE');
#261 = DIRECTION ( 'NONE',  ( -3.491481338843133355E-15, 1.224646799147352961E-16, -1.000000000000000000 ) ) ;
#262 = CARTESIAN_POINT ( 'NONE',  ( 3.840629472727446691E-14, -1.347111479062088207E-15, 11.00000000000000000 ) ) ;
#263 = DIRECTION ( 'NONE',  ( 4.275831445896957731E-31, 1.000000000000000000, 1.224646799147352961E-16 ) ) ;
#264 = APPROVAL_ROLE ( '' ) ;
#265 = AXIS2_PLACEMENT_3D ( 'NONE', #241, #279, #220 ) ;
#266 =( GEOMETRIC_REPRESENTATION_CONTEXT ( 3 ) GLOBAL_UNCERTAINTY_ASSIGNED_CONTEXT ( ( #260 ) ) GLOBAL_UNIT_ASSIGNED_CONTEXT ( ( #268, #134, #61 ) ) REPRESENTATION_CONTEXT ( 'NONE', 'WORKASPACE' ) );
#267 = DATE_AND_TIME ( #36, #207 ) ;
#268 =( LENGTH_UNIT ( ) NAMED_UNIT ( * ) SI_UNIT ( .MILLI., .METRE. ) );
#269 = CARTESIAN_POINT ( 'NONE',  ( 1.326762908760390423E-13, 1.199999999999998845, 38.00000000000000000 ) ) ;
#270 = CYLINDRICAL_SURFACE ( 'NONE', #71, 1.500000000000000444 ) ;
#271 = PRODUCT_DEFINITION_FORMATION_WITH_SPECIFIED_SOURCE ( 'ANY', '', #49, .NOT_KNOWN. ) ;
#272 = EDGE_CURVE ( 'NONE', #2, #2, #129, .T. ) ;
#273 = AXIS2_PLACEMENT_3D ( 'NONE', #137, #29, #127 ) ;
#274 = CARTESIAN_POINT ( 'NONE',  ( 0.0000000000000000000, 0.0000000000000000000, 0.0000000000000000000 ) ) ;
#275 = MANIFOLD_SOLID_BREP ( 'Corps-Déplacer/Copier1[1]', #130 ) ;
#276 = LOCAL_TIME ( 15, 49, 36.00000000000000000, #8 ) ;
#277 = CLOSED_SHELL ( 'NONE', ( #17, #23, #46, #302 ) ) ;
#278 = ORIENTED_EDGE ( 'NONE', *, *, #272, .T. ) ;
#279 = DIRECTION ( 'NONE',  ( -3.491481338843133355E-15, 1.224646799147352961E-16, -1.000000000000000000 ) ) ;
#280 = CARTESIAN_POINT ( 'NONE',  ( 1.781118094396013289E-14, -6.247321298667579496E-16, 5.101324972242780476 ) ) ;
#281 = DIRECTION ( 'NONE',  ( 3.491481338843133355E-15, -1.224646799147352961E-16, 1.000000000000000000 ) ) ;
#282 = CONICAL_SURFACE ( 'NONE', #231, 0.4649999999999996914, 0.5235987755982985936 ) ;
#283 = FACE_BOUND ( 'NONE', #300, .T. ) ;
#284 = DIRECTION ( 'NONE',  ( -3.491481338843133355E-15, 1.224646799147352961E-16, -1.000000000000000000 ) ) ;
#285 = SECURITY_CLASSIFICATION_LEVEL ( 'unclassified' ) ;
#286 = ADVANCED_FACE ( 'NONE', ( #136, #28 ), #62, .T. ) ;
#287 = VERTEX_POINT ( 'NONE', #80 ) ;
#288 = FACE_OUTER_BOUND ( 'NONE', #91, .T. ) ;
#289 = FACE_BOUND ( 'NONE', #152, .T. ) ;
#290 = DATE_AND_TIME ( #32, #276 ) ;
#291 = AXIS2_PLACEMENT_3D ( 'NONE', #262, #56, #107 ) ;
#292 = CARTESIAN_POINT ( 'NONE',  ( -1.892735826383161356E-31, 0.3791624327025950314, -5.421010862427522170E-17 ) ) ;
#293 = ORIENTED_EDGE ( 'NONE', *, *, #124, .T. ) ;
#294 = DIRECTION ( 'NONE',  ( 4.275831445896957731E-31, 1.000000000000000000, 1.224646799147353207E-16 ) ) ;
#295 = LOCAL_TIME ( 15, 49, 36.00000000000000000, #204 ) ;
#296 = ADVANCED_FACE ( 'NONE', ( #283, #6 ), #101, .T. ) ;
#297 = ORIENTED_EDGE ( 'NONE', *, *, #148, .F. ) ;
#298 = LOCAL_TIME ( 15, 49, 36.00000000000000000, #57 ) ;
#299 = ORIENTED_EDGE ( 'NONE', *, *, #230, .F. ) ;
#300 = EDGE_LOOP ( 'NONE', ( #119 ) ) ;
#301 = TOROIDAL_SURFACE ( 'NONE', #121, 2.465000000000000746, 2.000000000000000000 ) ;
#302 = ADVANCED_FACE ( 'NONE', ( #78 ), #179, .T. ) ;
#303 = EDGE_LOOP ( 'NONE', ( #188 ) ) ;
ENDSEC;
END-ISO-10303-21;
