ISO-10303-21;
HEADER;
FILE_DESCRIPTION (( 'STEP AP203' ),
    '1' );
FILE_NAME ('962568.step',
    '2021-11-30T10:47:31',
    ( '' ),
    ( '' ),
    'SwSTEP 2.0',
    'SolidWorks 2019',
    '' );
FILE_SCHEMA (( 'CONFIG_CONTROL_DESIGN' ));
ENDSEC;

DATA;
#1 = FACE_OUTER_BOUND ( 'NONE', #68, .T. ) ;
#2 = ADVANCED_FACE ( 'NONE', ( #205 ), #134, .F. ) ;
#3 = DIRECTION ( 'NONE',  ( -3.491481338843133355E-15, 1.224646799147353207E-16, -1.000000000000000000 ) ) ;
#4 = CARTESIAN_POINT ( 'NONE',  ( 4.643670180661366731E-13, 3.999999999999983569, 133.0000000000000000 ) ) ;
#5 = DIRECTION ( 'NONE',  ( -3.491481338843133355E-15, 1.224646799147353207E-16, -1.000000000000000000 ) ) ;
#6 = ADVANCED_FACE ( 'NONE', ( #40, #19 ), #22, .T. ) ;
#7 = DATE_AND_TIME ( #104, #121 ) ;
#8 = EDGE_LOOP ( 'NONE', ( #49 ) ) ;
#9 = CARTESIAN_POINT ( 'NONE',  ( 3.037588764793526145E-13, 4.749999999999997335, 87.00000000000001421 ) ) ;
#10 = CLOSED_SHELL ( 'NONE', ( #2, #255, #31, #29, #251, #157, #170 ) ) ;
#11 = CIRCLE ( 'NONE', #274, 4.800059892324148869 ) ;
#12 = ORIENTED_EDGE ( 'NONE', *, *, #248, .T. ) ;
#13 = VERTEX_POINT ( 'NONE', #37 ) ;
#14 = ORIENTED_EDGE ( 'NONE', *, *, #222, .F. ) ;
#15 = APPROVAL ( #113, 'UNSPECIFIED' ) ;
#16 = SECURITY_CLASSIFICATION_LEVEL ( 'unclassified' ) ;
#17 = AXIS2_PLACEMENT_3D ( 'NONE', #186, #224, #188 ) ;
#18 = CALENDAR_DATE ( 2021, 30, 11 ) ;
#19 = FACE_OUTER_BOUND ( 'NONE', #87, .T. ) ;
#20 = PERSON ( 'UNSPECIFIED', 'UNSPECIFIED', 'UNSPECIFIED', ('UNSPECIFIED'), ('UNSPECIFIED'), ('UNSPECIFIED') ) ;
#21 = COORDINATED_UNIVERSAL_TIME_OFFSET ( 1, 0, .AHEAD. ) ;
#22 = CYLINDRICAL_SURFACE ( 'NONE', #92, 5.030999999999998806 ) ;
#23 = DIRECTION ( 'NONE',  ( 0.0000000000000000000, 1.000000000000000000, 0.0000000000000000000 ) ) ;
#24 = ADVANCED_FACE ( 'NONE', ( #258 ), #263, .T. ) ;
#25 = DIRECTION ( 'NONE',  ( -4.210938061669570328E-31, -1.000000000000000000, -1.185273692838457227E-16 ) ) ;
#26 = DIRECTION ( 'NONE',  ( 3.491481338843133355E-15, -1.224646799147353207E-16, 1.000000000000000000 ) ) ;
#27 = CC_DESIGN_APPROVAL ( #116, ( #112 ) ) ;
#28 = FACE_OUTER_BOUND ( 'NONE', #138, .T. ) ;
#29 = ADVANCED_FACE ( 'NONE', ( #28, #127 ), #281, .F. ) ;
#30 = PLANE ( 'NONE',  #234 ) ;
#31 = ADVANCED_FACE ( 'NONE', ( #1, #100 ), #126, .T. ) ;
#32 = PERSON_AND_ORGANIZATION ( #20, #33 ) ;
#33 = ORGANIZATION ( 'UNSPECIFIED', 'UNSPECIFIED', '' ) ;
#34 = CARTESIAN_POINT ( 'NONE',  ( 1.396592535537253539E-15, 5.030999999999997030, 0.4000000000000000222 ) ) ;
#35 = CARTESIAN_POINT ( 'NONE',  ( 0.0000000000000000000, 0.0000000000000000000, 0.0000000000000000000 ) ) ;
#36 = EDGE_LOOP ( 'NONE', ( #269 ) ) ;
#37 = CARTESIAN_POINT ( 'NONE',  ( 6.633814543801952113E-14, 5.030999999999997030, 19.00000000000000000 ) ) ;
#38 = CIRCLE ( 'NONE', #78, 4.750000000000007994 ) ;
#39 = CONICAL_SURFACE ( 'NONE', #210, 4.749999999999992006, 0.5235987755982938197 ) ;
#40 = FACE_OUTER_BOUND ( 'NONE', #185, .T. ) ;
#41 = PERSON_AND_ORGANIZATION_ROLE ( 'design_supplier' ) ;
#42 = CC_DESIGN_PERSON_AND_ORGANIZATION_ASSIGNMENT ( #219, #257, ( #89 ) ) ;
#43 = DATE_AND_TIME ( #156, #102 ) ;
#44 = CLOSED_SHELL ( 'NONE', ( #98, #236, #6, #24 ) ) ;
#45 = AXIS2_PLACEMENT_3D ( 'NONE', #55, #241, #160 ) ;
#46 = LOCAL_TIME ( 11, 47, 31.00000000000000000, #69 ) ;
#47 = EDGE_LOOP ( 'NONE', ( #254 ) ) ;
#48 = PERSON_AND_ORGANIZATION ( #20, #33 ) ;
#49 = ORIENTED_EDGE ( 'NONE', *, *, #248, .F. ) ;
#50 = CC_DESIGN_DATE_AND_TIME_ASSIGNMENT ( #237, #155, ( #89 ) ) ;
#51 = AXIS2_PLACEMENT_3D ( 'NONE', #264, #243, #23 ) ;
#52 = DIRECTION ( 'NONE',  ( -3.491481338843133355E-15, 1.224646799147353207E-16, -1.000000000000000000 ) ) ;
#53 = CARTESIAN_POINT ( 'NONE',  ( 6.633814543801952113E-14, -2.326828918379970970E-15, 19.00000000000000000 ) ) ;
#54 = APPLICATION_CONTEXT ( 'configuration controlled 3d designs of mechanical parts and assemblies' ) ;
#55 = CARTESIAN_POINT ( 'NONE',  ( 4.608755367272936534E-13, -1.616533774874506480E-14, 132.0000000000000000 ) ) ;
#56 = AXIS2_PLACEMENT_3D ( 'NONE', #86, #177, #152 ) ;
#57 = PRODUCT ( '962568', '962568', '', ( #253 ) ) ;
#58 = CARTESIAN_POINT ( 'NONE',  ( -1.026212351489418278E-30, 3.599468390437982798E-32, -2.939188991425179111E-16 ) ) ;
#59 = DIRECTION ( 'NONE',  ( 1.000000000000000000, 0.0000000000000000000, 0.0000000000000000000 ) ) ;
#60 = PERSON_AND_ORGANIZATION_ROLE ( 'design_owner' ) ;
#61 = AXIS2_PLACEMENT_3D ( 'NONE', #215, #103, #62 ) ;
#62 = DIRECTION ( 'NONE',  ( 0.0000000000000000000, 1.000000000000000000, 0.0000000000000000000 ) ) ;
#63 = EDGE_LOOP ( 'NONE', ( #14 ) ) ;
#64 = DIRECTION ( 'NONE',  ( 0.0000000000000000000, 0.0000000000000000000, 1.000000000000000000 ) ) ;
#65 = ORIENTED_EDGE ( 'NONE', *, *, #105, .F. ) ;
#66 = DATE_AND_TIME ( #90, #46 ) ;
#67 = CC_DESIGN_SECURITY_CLASSIFICATION ( #89, ( #196 ) ) ;
#68 = EDGE_LOOP ( 'NONE', ( #273 ) ) ;
#69 = COORDINATED_UNIVERSAL_TIME_OFFSET ( 1, 0, .AHEAD. ) ;
#70 = EDGE_CURVE ( 'NONE', #13, #13, #107, .T. ) ;
#71 = APPROVAL_DATE_TIME ( #7, #116 ) ;
#72 = PERSON_AND_ORGANIZATION_ROLE ( 'creator' ) ;
#73 = EDGE_LOOP ( 'NONE', ( #252 ) ) ;
#74 = DIRECTION ( 'NONE',  ( -3.491481338843133355E-15, 1.224646799147353207E-16, -1.000000000000000000 ) ) ;
#75 = CARTESIAN_POINT ( 'NONE',  ( -2.052424702978836557E-30, 7.198936780875965595E-32, -5.878377982850358223E-16 ) ) ;
#76 = DIRECTION ( 'NONE',  ( -3.491481338843133355E-15, 1.224646799147353207E-16, -1.000000000000000000 ) ) ;
#77 = PLANE ( 'NONE',  #246 ) ;
#78 = AXIS2_PLACEMENT_3D ( 'NONE', #207, #74, #211 ) ;
#79 = APPROVAL_PERSON_ORGANIZATION ( #32, #116, #214 ) ;
#80 = FACE_OUTER_BOUND ( 'NONE', #8, .T. ) ;
#81 = CARTESIAN_POINT ( 'NONE',  ( 3.421138828918010427E-46, 4.800059892324148869, 0.0000000000000000000 ) ) ;
#82 = CARTESIAN_POINT ( 'NONE',  ( 6.803747132140753031E-14, -2.386433246796313013E-15, 19.48670627692687418 ) ) ;
#83 = CIRCLE ( 'NONE', #17, 5.030999999999999694 ) ;
#84 = ORIENTED_EDGE ( 'NONE', *, *, #93, .T. ) ;
#85 = CARTESIAN_POINT ( 'NONE',  ( 0.0000000000000000000, 0.0000000000000000000, 0.0000000000000000000 ) ) ;
#86 = CARTESIAN_POINT ( 'NONE',  ( 6.633814543801952113E-14, 3.772645733285898548E-32, 19.00000000000000000 ) ) ;
#87 = EDGE_LOOP ( 'NONE', ( #175 ) ) ;
#88 = APPROVAL_STATUS ( 'not_yet_approved' ) ;
#89 = SECURITY_CLASSIFICATION ( '', '', #16 ) ;
#90 = CALENDAR_DATE ( 2021, 30, 11 ) ;
#91 = PERSON_AND_ORGANIZATION ( #20, #33 ) ;
#92 = AXIS2_PLACEMENT_3D ( 'NONE', #256, #276, #183 ) ;
#93 = EDGE_CURVE ( 'NONE', #231, #231, #38, .T. ) ;
#94 = UNCERTAINTY_MEASURE_WITH_UNIT (LENGTH_MEASURE( 1.000000000000000082E-05 ), #272, 'distance_accuracy_value', 'NONE');
#95 = CARTESIAN_POINT ( 'NONE',  ( 0.0000000000000000000, 0.0000000000000000000, 0.0000000000000000000 ) ) ;
#96 = MANIFOLD_SOLID_BREP ( 'Corps-Déplacer/Copier1[1]', #10 ) ;
#97 = DIRECTION ( 'NONE',  ( 4.210938061669570328E-31, 1.000000000000000000, 1.185273692838457227E-16 ) ) ;
#98 = ADVANCED_FACE ( 'NONE', ( #282 ), #30, .F. ) ;
#99 = DIRECTION ( 'NONE',  ( 0.0000000000000000000, 1.000000000000000000, 0.0000000000000000000 ) ) ;
#100 = FACE_OUTER_BOUND ( 'NONE', #200, .T. ) ;
#101 = DIRECTION ( 'NONE',  ( -3.491481338843133355E-15, 1.224646799147353207E-16, -1.000000000000000000 ) ) ;
#102 = LOCAL_TIME ( 11, 47, 31.00000000000000000, #135 ) ;
#103 = DIRECTION ( 'NONE',  ( -3.491481338843133355E-15, 1.224646799147353207E-16, -1.000000000000000000 ) ) ;
#104 = CALENDAR_DATE ( 2021, 30, 11 ) ;
#105 = EDGE_CURVE ( 'NONE', #217, #217, #120, .T. ) ;
#106 = EDGE_LOOP ( 'NONE', ( #218 ) ) ;
#107 = CIRCLE ( 'NONE', #166, 5.030999999999999694 ) ;
#108 = APPLICATION_PROTOCOL_DEFINITION ( 'international standard', 'config_control_design', 1994, #54 ) ;
#109 = CIRCLE ( 'NONE', #250, 5.030999999999997030 ) ;
#110 = ORIENTED_EDGE ( 'NONE', *, *, #93, .F. ) ;
#111 = VERTEX_POINT ( 'NONE', #131 ) ;
#112 = PRODUCT_DEFINITION ( 'UNKNOWN', '', #196, #240 ) ;
#113 = APPROVAL_STATUS ( 'not_yet_approved' ) ;
#114 = DATE_AND_TIME ( #153, #283 ) ;
#115 = AXIS2_PLACEMENT_3D ( 'NONE', #163, #244, #168 ) ;
#116 = APPROVAL ( #230, 'UNSPECIFIED' ) ;
#117 = PERSON_AND_ORGANIZATION ( #20, #33 ) ;
#118 = ORIENTED_EDGE ( 'NONE', *, *, #260, .T. ) ;
#119 = ADVANCED_BREP_SHAPE_REPRESENTATION ( '962568', ( #96, #190, #278 ), #262 ) ;
#120 = CIRCLE ( 'NONE', #266, 4.000000000000000000 ) ;
#121 = LOCAL_TIME ( 11, 47, 31.00000000000000000, #130 ) ;
#122 = CYLINDRICAL_SURFACE ( 'NONE', #133, 4.999999999999997335 ) ;
#123 = EDGE_CURVE ( 'NONE', #270, #270, #83, .T. ) ;
#124 = CC_DESIGN_DATE_AND_TIME_ASSIGNMENT ( #66, #275, ( #112 ) ) ;
#125 = FACE_OUTER_BOUND ( 'NONE', #63, .T. ) ;
#126 = CYLINDRICAL_SURFACE ( 'NONE', #277, 4.750000000000000000 ) ;
#127 = FACE_OUTER_BOUND ( 'NONE', #198, .T. ) ;
#128 = DIRECTION ( 'NONE',  ( -3.491481338843133355E-15, 1.224646799147353207E-16, -1.000000000000000000 ) ) ;
#129 = DIRECTION ( 'NONE',  ( 0.0000000000000000000, 1.000000000000000000, 0.0000000000000000000 ) ) ;
#130 = COORDINATED_UNIVERSAL_TIME_OFFSET ( 1, 0, .AHEAD. ) ;
#131 = CARTESIAN_POINT ( 'NONE',  ( 3.071394887490858903E-13, 4.999999999999984013, 87.96824583655184426 ) ) ;
#132 = ORIENTED_EDGE ( 'NONE', *, *, #148, .T. ) ;
#133 = AXIS2_PLACEMENT_3D ( 'NONE', #85, #5, #212 ) ;
#134 = PLANE ( 'NONE',  #56 ) ;
#135 = COORDINATED_UNIVERSAL_TIME_OFFSET ( 1, 0, .AHEAD. ) ;
#136 = AXIS2_PLACEMENT_3D ( 'NONE', #147, #26, #259 ) ;
#137 = APPROVAL_PERSON_ORGANIZATION ( #48, #242, #178 ) ;
#138 = EDGE_LOOP ( 'NONE', ( #110 ) ) ;
#139 = APPROVAL_ROLE ( '' ) ;
#140 = ORIENTED_EDGE ( 'NONE', *, *, #70, .T. ) ;
#141 = CARTESIAN_POINT ( 'NONE',  ( 1.396592535537251370E-15, -4.898587196589405680E-17, 0.3999999999999994116 ) ) ;
#142 = CARTESIAN_POINT ( 'NONE',  ( 1.396592535537251370E-15, -4.898587196589405680E-17, 0.3999999999999994116 ) ) ;
#143 = APPLICATION_CONTEXT ( 'configuration controlled 3d designs of mechanical parts and assemblies' ) ;
#144 = FACE_OUTER_BOUND ( 'NONE', #271, .T. ) ;
#145 = FACE_OUTER_BOUND ( 'NONE', #154, .T. ) ;
#146 = APPROVAL_PERSON_ORGANIZATION ( #182, #15, #139 ) ;
#147 = CARTESIAN_POINT ( 'NONE',  ( 6.633814543801952113E-14, 3.772645733285898548E-32, 19.00000000000000000 ) ) ;
#148 = EDGE_CURVE ( 'NONE', #194, #194, #109, .T. ) ;
#149 = PERSON_AND_ORGANIZATION ( #20, #33 ) ;
#150 = CC_DESIGN_PERSON_AND_ORGANIZATION_ASSIGNMENT ( #117, #204, ( #196 ) ) ;
#151 = VERTEX_POINT ( 'NONE', #173 ) ;
#152 = DIRECTION ( 'NONE',  ( -4.275831445896958607E-31, -1.000000000000000000, -1.224646799147353207E-16 ) ) ;
#153 = CALENDAR_DATE ( 2021, 30, 11 ) ;
#154 = EDGE_LOOP ( 'NONE', ( #132 ) ) ;
#155 = DATE_TIME_ROLE ( 'classification_date' ) ;
#156 = CALENDAR_DATE ( 2021, 30, 11 ) ;
#157 = ADVANCED_FACE ( 'NONE', ( #125, #162 ), #171, .T. ) ;
#158 = APPROVAL_DATE_TIME ( #114, #242 ) ;
#159 = PRODUCT_DEFINITION_SHAPE ( 'NONE', 'NONE',  #112 ) ;
#160 = DIRECTION ( 'NONE',  ( 0.0000000000000000000, 1.000000000000000000, 0.0000000000000000000 ) ) ;
#161 = LOCAL_TIME ( 11, 47, 31.00000000000000000, #21 ) ;
#162 = FACE_BOUND ( 'NONE', #221, .T. ) ;
#163 = CARTESIAN_POINT ( 'NONE',  ( 4.643670180661366731E-13, -1.628780242865979995E-14, 133.0000000000000000 ) ) ;
#164 = CC_DESIGN_PERSON_AND_ORGANIZATION_ASSIGNMENT ( #149, #60, ( #57 ) ) ;
#165 = CARTESIAN_POINT ( 'NONE',  ( 3.037588764793525640E-13, -1.040834085586084257E-14, 87.00000000000000000 ) ) ;
#166 = AXIS2_PLACEMENT_3D ( 'NONE', #53, #247, #208 ) ;
#167 = CIRCLE ( 'NONE', #45, 5.000000000000000000 ) ;
#168 = DIRECTION ( 'NONE',  ( 0.0000000000000000000, 1.000000000000000000, 0.0000000000000000000 ) ) ;
#169 = DIRECTION ( 'NONE',  ( -3.491481338843133355E-15, 1.224646799147353207E-16, -1.000000000000000000 ) ) ;
#170 = ADVANCED_FACE ( 'NONE', ( #191 ), #77, .F. ) ;
#171 = CONICAL_SURFACE ( 'NONE', #115, 4.000000000000000000, 0.7853981633974479459 ) ;
#172 = CC_DESIGN_APPROVAL ( #15, ( #89 ) ) ;
#173 = CARTESIAN_POINT ( 'NONE',  ( 4.608755367272936534E-13, 4.999999999999984013, 132.0000000000000000 ) ) ;
#174 = VERTEX_POINT ( 'NONE', #193 ) ;
#175 = ORIENTED_EDGE ( 'NONE', *, *, #123, .T. ) ;
#176 = CC_DESIGN_PERSON_AND_ORGANIZATION_ASSIGNMENT ( #91, #41, ( #196 ) ) ;
#177 = DIRECTION ( 'NONE',  ( 3.491481338843133355E-15, -1.224646799147353207E-16, 1.000000000000000000 ) ) ;
#178 = APPROVAL_ROLE ( '' ) ;
#179 = CONICAL_SURFACE ( 'NONE', #213, 5.030999999999997030, 0.5235987755982945968 ) ;
#180 = COORDINATED_UNIVERSAL_TIME_OFFSET ( 1, 0, .AHEAD. ) ;
#181 = APPROVAL_DATE_TIME ( #43, #15 ) ;
#182 = PERSON_AND_ORGANIZATION ( #20, #33 ) ;
#183 = DIRECTION ( 'NONE',  ( 4.275831445896958607E-31, 1.000000000000000000, 1.224646799147353454E-16 ) ) ;
#184 = CC_DESIGN_APPROVAL ( #242, ( #196 ) ) ;
#185 = EDGE_LOOP ( 'NONE', ( #239 ) ) ;
#186 = CARTESIAN_POINT ( 'NONE',  ( 6.633814543801952113E-14, -2.326828918379970970E-15, 19.00000000000000000 ) ) ;
#187 = DIRECTION ( 'NONE',  ( 3.491481338843133355E-15, -1.224646799147353207E-16, 1.000000000000000000 ) ) ;
#188 = DIRECTION ( 'NONE',  ( 0.0000000000000000000, 1.000000000000000000, 0.0000000000000000000 ) ) ;
#189 = DIRECTION ( 'NONE',  ( 4.275831445896959482E-31, 1.000000000000000000, 1.224646799147353207E-16 ) ) ;
#190 = MANIFOLD_SOLID_BREP ( 'Corps-Déplacer/Copier1[2]', #44 ) ;
#191 = FACE_OUTER_BOUND ( 'NONE', #216, .T. ) ;
#192 = FACE_OUTER_BOUND ( 'NONE', #47, .T. ) ;
#193 = CARTESIAN_POINT ( 'NONE',  ( 6.803747132140753031E-14, 4.749999999999989342, 19.48670627692687418 ) ) ;
#194 = VERTEX_POINT ( 'NONE', #34 ) ;
#195 = ORIENTED_EDGE ( 'NONE', *, *, #222, .T. ) ;
#196 = PRODUCT_DEFINITION_FORMATION_WITH_SPECIFIED_SOURCE ( 'ANY', '', #57, .NOT_KNOWN. ) ;
#197 =( NAMED_UNIT ( * ) SI_UNIT ( $, .STERADIAN. ) SOLID_ANGLE_UNIT ( ) );
#198 = EDGE_LOOP ( 'NONE', ( #12 ) ) ;
#199 = VERTEX_POINT ( 'NONE', #81 ) ;
#200 = EDGE_LOOP ( 'NONE', ( #84 ) ) ;
#201 = SHAPE_DEFINITION_REPRESENTATION ( #159, #119 ) ;
#202 = PERSON_AND_ORGANIZATION ( #20, #33 ) ;
#203 = CC_DESIGN_PERSON_AND_ORGANIZATION_ASSIGNMENT ( #202, #72, ( #112 ) ) ;
#204 = PERSON_AND_ORGANIZATION_ROLE ( 'creator' ) ;
#205 = FACE_OUTER_BOUND ( 'NONE', #232, .T. ) ;
#206 = DIRECTION ( 'NONE',  ( 4.275831445896959482E-31, 1.000000000000000000, 1.224646799147353207E-16 ) ) ;
#207 = CARTESIAN_POINT ( 'NONE',  ( 3.037588764793526145E-13, -1.065442715258197367E-14, 87.00000000000001421 ) ) ;
#208 = DIRECTION ( 'NONE',  ( 0.0000000000000000000, 1.000000000000000000, 0.0000000000000000000 ) ) ;
#209 = AXIS2_PLACEMENT_3D ( 'NONE', #165, #76, #225 ) ;
#210 = AXIS2_PLACEMENT_3D ( 'NONE', #82, #169, #129 ) ;
#211 = DIRECTION ( 'NONE',  ( 0.0000000000000000000, 1.000000000000000000, 0.0000000000000000000 ) ) ;
#212 = DIRECTION ( 'NONE',  ( 4.275831445896959482E-31, 1.000000000000000000, 1.224646799147353207E-16 ) ) ;
#213 = AXIS2_PLACEMENT_3D ( 'NONE', #142, #226, #25 ) ;
#214 = APPROVAL_ROLE ( '' ) ;
#215 = CARTESIAN_POINT ( 'NONE',  ( 6.803747132140753031E-14, -2.386433246796313013E-15, 19.48670627692687418 ) ) ;
#216 = EDGE_LOOP ( 'NONE', ( #65 ) ) ;
#217 = VERTEX_POINT ( 'NONE', #4 ) ;
#218 = ORIENTED_EDGE ( 'NONE', *, *, #123, .F. ) ;
#219 = PERSON_AND_ORGANIZATION ( #20, #33 ) ;
#220 = EDGE_LOOP ( 'NONE', ( #118 ) ) ;
#221 = EDGE_LOOP ( 'NONE', ( #235 ) ) ;
#222 = EDGE_CURVE ( 'NONE', #151, #151, #167, .T. ) ;
#223 = CARTESIAN_POINT ( 'NONE',  ( 4.643670180661366731E-13, -1.628780242865979995E-14, 133.0000000000000000 ) ) ;
#224 = DIRECTION ( 'NONE',  ( -3.491481338843133355E-15, 1.224646799147353207E-16, -1.000000000000000000 ) ) ;
#225 = DIRECTION ( 'NONE',  ( 4.275831445896958607E-31, 1.000000000000000000, 1.224646799147353207E-16 ) ) ;
#226 = DIRECTION ( 'NONE',  ( 3.491481338843133355E-15, -1.224646799147353207E-16, 1.000000000000000000 ) ) ;
#227 = CIRCLE ( 'NONE', #51, 4.999999999999993783 ) ;
#228 = EDGE_CURVE ( 'NONE', #199, #199, #11, .T. ) ;
#229 = APPLICATION_PROTOCOL_DEFINITION ( 'international standard', 'config_control_design', 1994, #143 ) ;
#230 = APPROVAL_STATUS ( 'not_yet_approved' ) ;
#231 = VERTEX_POINT ( 'NONE', #9 ) ;
#232 = EDGE_LOOP ( 'NONE', ( #140 ) ) ;
#233 = FACE_BOUND ( 'NONE', #220, .T. ) ;
#234 = AXIS2_PLACEMENT_3D ( 'NONE', #58, #187, #280 ) ;
#235 = ORIENTED_EDGE ( 'NONE', *, *, #105, .T. ) ;
#236 = ADVANCED_FACE ( 'NONE', ( #265, #145 ), #179, .T. ) ;
#237 = DATE_AND_TIME ( #18, #161 ) ;
#238 = CIRCLE ( 'NONE', #61, 4.749999999999992006 ) ;
#239 = ORIENTED_EDGE ( 'NONE', *, *, #148, .F. ) ;
#240 = DESIGN_CONTEXT ( 'detailed design', #143, 'design' ) ;
#241 = DIRECTION ( 'NONE',  ( -3.491481338843133355E-15, 1.224646799147353207E-16, -1.000000000000000000 ) ) ;
#242 = APPROVAL ( #88, 'UNSPECIFIED' ) ;
#243 = DIRECTION ( 'NONE',  ( -3.491481338843133355E-15, 1.224646799147353207E-16, -1.000000000000000000 ) ) ;
#244 = DIRECTION ( 'NONE',  ( -3.491481338843133355E-15, 1.224646799147353207E-16, -1.000000000000000000 ) ) ;
#245 = CARTESIAN_POINT ( 'NONE',  ( 4.643670180661366731E-13, 2.999519565323690036E-32, 133.0000000000000000 ) ) ;
#246 = AXIS2_PLACEMENT_3D ( 'NONE', #245, #261, #279 ) ;
#247 = DIRECTION ( 'NONE',  ( -3.491481338843133355E-15, 1.224646799147353207E-16, -1.000000000000000000 ) ) ;
#248 = EDGE_CURVE ( 'NONE', #111, #111, #227, .T. ) ;
#249 =( NAMED_UNIT ( * ) PLANE_ANGLE_UNIT ( ) SI_UNIT ( $, .RADIAN. ) );
#250 = AXIS2_PLACEMENT_3D ( 'NONE', #141, #101, #97 ) ;
#251 = ADVANCED_FACE ( 'NONE', ( #80, #144 ), #122, .T. ) ;
#252 = ORIENTED_EDGE ( 'NONE', *, *, #228, .F. ) ;
#253 = MECHANICAL_CONTEXT ( 'NONE', #54, 'mechanical' ) ;
#254 = ORIENTED_EDGE ( 'NONE', *, *, #70, .F. ) ;
#255 = ADVANCED_FACE ( 'NONE', ( #192, #233 ), #39, .T. ) ;
#256 = CARTESIAN_POINT ( 'NONE',  ( 0.0000000000000000000, 0.0000000000000000000, 0.0000000000000000000 ) ) ;
#257 = PERSON_AND_ORGANIZATION_ROLE ( 'classification_officer' ) ;
#258 = FACE_OUTER_BOUND ( 'NONE', #106, .T. ) ;
#259 = DIRECTION ( 'NONE',  ( -4.275831445896958607E-31, -1.000000000000000000, -1.224646799147353207E-16 ) ) ;
#260 = EDGE_CURVE ( 'NONE', #174, #174, #238, .T. ) ;
#261 = DIRECTION ( 'NONE',  ( -3.491481338843133355E-15, 1.224646799147353207E-16, -1.000000000000000000 ) ) ;
#262 =( GEOMETRIC_REPRESENTATION_CONTEXT ( 3 ) GLOBAL_UNCERTAINTY_ASSIGNED_CONTEXT ( ( #94 ) ) GLOBAL_UNIT_ASSIGNED_CONTEXT ( ( #272, #249, #197 ) ) REPRESENTATION_CONTEXT ( 'NONE', 'WORKASPACE' ) );
#263 = PLANE ( 'NONE',  #136 ) ;
#264 = CARTESIAN_POINT ( 'NONE',  ( 3.071394887490858903E-13, -1.077300306903406976E-14, 87.96824583655184426 ) ) ;
#265 = FACE_BOUND ( 'NONE', #73, .T. ) ;
#266 = AXIS2_PLACEMENT_3D ( 'NONE', #223, #3, #99 ) ;
#267 = CARTESIAN_POINT ( 'NONE',  ( 6.633814543801952113E-14, 5.030999999999997030, 19.00000000000000000 ) ) ;
#268 = PRODUCT_RELATED_PRODUCT_CATEGORY ( 'detail', '', ( #57 ) ) ;
#269 = ORIENTED_EDGE ( 'NONE', *, *, #228, .T. ) ;
#270 = VERTEX_POINT ( 'NONE', #267 ) ;
#271 = EDGE_LOOP ( 'NONE', ( #195 ) ) ;
#272 =( LENGTH_UNIT ( ) NAMED_UNIT ( * ) SI_UNIT ( .MILLI., .METRE. ) );
#273 = ORIENTED_EDGE ( 'NONE', *, *, #260, .F. ) ;
#274 = AXIS2_PLACEMENT_3D ( 'NONE', #75, #52, #189 ) ;
#275 = DATE_TIME_ROLE ( 'creation_date' ) ;
#276 = DIRECTION ( 'NONE',  ( -3.491481338843133355E-15, 1.224646799147353207E-16, -1.000000000000000000 ) ) ;
#277 = AXIS2_PLACEMENT_3D ( 'NONE', #95, #128, #206 ) ;
#278 = AXIS2_PLACEMENT_3D ( 'NONE', #35, #64, #59 ) ;
#279 = DIRECTION ( 'NONE',  ( 4.275831445896958607E-31, 1.000000000000000000, 1.224646799147353207E-16 ) ) ;
#280 = DIRECTION ( 'NONE',  ( -4.275831445896958607E-31, -1.000000000000000000, -1.224646799147353207E-16 ) ) ;
#281 = TOROIDAL_SURFACE ( 'NONE', #209, 6.750000000000007994, 2.000000000000004441 ) ;
#282 = FACE_OUTER_BOUND ( 'NONE', #36, .T. ) ;
#283 = LOCAL_TIME ( 11, 47, 31.00000000000000000, #180 ) ;
ENDSEC;
END-ISO-10303-21;
