ISO-10303-21;
HEADER;
FILE_DESCRIPTION (( 'STEP AP203' ),
    '1' );
FILE_NAME ('962551.step',
    '2021-11-30T09:37:00',
    ( '' ),
    ( '' ),
    'SwSTEP 2.0',
    'SolidWorks 2019',
    '' );
FILE_SCHEMA (( 'CONFIG_CONTROL_DESIGN' ));
ENDSEC;

DATA;
#1 = FACE_OUTER_BOUND ( 'NONE', #107, .T. ) ;
#2 = FACE_OUTER_BOUND ( 'NONE', #260, .T. ) ;
#3 = ADVANCED_FACE ( 'NONE', ( #206, #1 ), #171, .T. ) ;
#4 = CARTESIAN_POINT ( 'NONE',  ( 0.0000000000000000000, 0.0000000000000000000, 0.0000000000000000000 ) ) ;
#5 = CIRCLE ( 'NONE', #82, 1.323499999999998566 ) ;
#6 = PERSON_AND_ORGANIZATION_ROLE ( 'creator' ) ;
#7 = PLANE ( 'NONE',  #60 ) ;
#8 = DATE_AND_TIME ( #212, #231 ) ;
#9 = CARTESIAN_POINT ( 'NONE',  ( -4.413685731168216838E-31, 1.548112556978025360E-32, -1.264129835684771619E-16 ) ) ;
#10 = COORDINATED_UNIVERSAL_TIME_OFFSET ( 1, 0, .AHEAD. ) ;
#11 = FACE_OUTER_BOUND ( 'NONE', #261, .T. ) ;
#12 = LOCAL_TIME ( 10, 37, 0.0000000000000000000, #239 ) ;
#13 = CARTESIAN_POINT ( 'NONE',  ( 3.614546398369628854E-14, 1.119999999999996998, 10.35247233934027378 ) ) ;
#14 = CARTESIAN_POINT ( 'NONE',  ( 2.129803616694311221E-13, -7.470345474798856659E-15, 61.00000000000000000 ) ) ;
#15 = DIRECTION ( 'NONE',  ( 0.0000000000000000000, 1.000000000000000000, 0.0000000000000000000 ) ) ;
#16 = DIRECTION ( 'NONE',  ( -3.491481338843133355E-15, 1.224646799147353454E-16, -1.000000000000000000 ) ) ;
#17 = CARTESIAN_POINT ( 'NONE',  ( 3.491481338843133355E-14, 1.323499999999998566, 10.00000000000000000 ) ) ;
#18 = ORIENTED_EDGE ( 'NONE', *, *, #30, .T. ) ;
#19 = APPROVAL_PERSON_ORGANIZATION ( #142, #270, #92 ) ;
#20 = ORIENTED_EDGE ( 'NONE', *, *, #55, .T. ) ;
#21 = APPLICATION_CONTEXT ( 'configuration controlled 3d designs of mechanical parts and assemblies' ) ;
#22 = CIRCLE ( 'NONE', #295, 1.500000000000001332 ) ;
#23 = EDGE_LOOP ( 'NONE', ( #110 ) ) ;
#24 = PERSON_AND_ORGANIZATION ( #98, #160 ) ;
#25 = PRODUCT ( '962551', '962551', '', ( #217 ) ) ;
#26 = DIRECTION ( 'NONE',  ( -3.491481338843133355E-15, 1.224646799147353454E-16, -1.000000000000000000 ) ) ;
#27 = PERSON_AND_ORGANIZATION ( #98, #160 ) ;
#28 = DIRECTION ( 'NONE',  ( -3.491481338843133355E-15, 1.224646799147353454E-16, -1.000000000000000000 ) ) ;
#29 = CC_DESIGN_SECURITY_CLASSIFICATION ( #72, ( #39 ) ) ;
#30 = EDGE_CURVE ( 'NONE', #57, #57, #22, .T. ) ;
#31 = CYLINDRICAL_SURFACE ( 'NONE', #253, 1.119999999999998996 ) ;
#32 = DIRECTION ( 'NONE',  ( -3.491481338843133355E-15, 1.224646799147353454E-16, -1.000000000000000000 ) ) ;
#33 = PERSON_AND_ORGANIZATION ( #98, #160 ) ;
#34 = FACE_BOUND ( 'NONE', #205, .T. ) ;
#35 = APPROVAL_PERSON_ORGANIZATION ( #24, #237, #195 ) ;
#36 =( NAMED_UNIT ( * ) PLANE_ANGLE_UNIT ( ) SI_UNIT ( $, .RADIAN. ) );
#37 = DIRECTION ( 'NONE',  ( -4.275831445896959482E-31, -1.000000000000000000, -1.224646799147353454E-16 ) ) ;
#38 = DIRECTION ( 'NONE',  ( 3.491481338843133355E-15, -1.224646799147353454E-16, 1.000000000000000000 ) ) ;
#39 = PRODUCT_DEFINITION_FORMATION_WITH_SPECIFIED_SOURCE ( 'ANY', '', #25, .NOT_KNOWN. ) ;
#40 = VERTEX_POINT ( 'NONE', #148 ) ;
#41 = ADVANCED_FACE ( 'NONE', ( #119, #218 ), #31, .T. ) ;
#42 = ORIENTED_EDGE ( 'NONE', *, *, #55, .F. ) ;
#43 = AXIS2_PLACEMENT_3D ( 'NONE', #162, #28, #71 ) ;
#44 = DIRECTION ( 'NONE',  ( 0.0000000000000000000, 1.000000000000000000, 0.0000000000000000000 ) ) ;
#45 = COORDINATED_UNIVERSAL_TIME_OFFSET ( 1, 0, .AHEAD. ) ;
#46 = CARTESIAN_POINT ( 'NONE',  ( 3.614546398369628854E-14, -1.267812211363458297E-15, 10.35247233934027378 ) ) ;
#47 = CARTESIAN_POINT ( 'NONE',  ( 8.849961221477469775E-14, -3.104148534859897544E-15, 25.34729635533384595 ) ) ;
#48 = DATE_AND_TIME ( #116, #66 ) ;
#49 = DIRECTION ( 'NONE',  ( -3.491481338843133355E-15, 1.224646799147353454E-16, -1.000000000000000000 ) ) ;
#50 = CIRCLE ( 'NONE', #224, 1.179162432702594021 ) ;
#51 = PERSON_AND_ORGANIZATION_ROLE ( 'design_owner' ) ;
#52 = FACE_OUTER_BOUND ( 'NONE', #84, .T. ) ;
#53 = DATE_AND_TIME ( #167, #233 ) ;
#54 = DIRECTION ( 'NONE',  ( -3.491481338843133355E-15, 1.224646799147353454E-16, -1.000000000000000000 ) ) ;
#55 = EDGE_CURVE ( 'NONE', #76, #76, #258, .T. ) ;
#56 = VERTEX_POINT ( 'NONE', #275 ) ;
#57 = VERTEX_POINT ( 'NONE', #198 ) ;
#58 = FACE_OUTER_BOUND ( 'NONE', #285, .T. ) ;
#59 = CC_DESIGN_DATE_AND_TIME_ASSIGNMENT ( #8, #158, ( #136 ) ) ;
#60 = AXIS2_PLACEMENT_3D ( 'NONE', #9, #91, #291 ) ;
#61 = ORIENTED_EDGE ( 'NONE', *, *, #143, .T. ) ;
#62 = CIRCLE ( 'NONE', #95, 1.200000000000001510 ) ;
#63 = ORIENTED_EDGE ( 'NONE', *, *, #284, .T. ) ;
#64 = EDGE_LOOP ( 'NONE', ( #229 ) ) ;
#65 = ORIENTED_EDGE ( 'NONE', *, *, #210, .T. ) ;
#66 = LOCAL_TIME ( 10, 37, 0.0000000000000000000, #192 ) ;
#67 = DIRECTION ( 'NONE',  ( 0.0000000000000000000, 1.000000000000000000, 0.0000000000000000000 ) ) ;
#68 = DIRECTION ( 'NONE',  ( -3.491481338843133355E-15, 1.224646799147353454E-16, -1.000000000000000000 ) ) ;
#69 = FACE_BOUND ( 'NONE', #156, .T. ) ;
#70 = PERSON_AND_ORGANIZATION_ROLE ( 'classification_officer' ) ;
#71 = DIRECTION ( 'NONE',  ( 4.275831445896959482E-31, 1.000000000000000000, 1.224646799147353454E-16 ) ) ;
#72 = SECURITY_CLASSIFICATION ( '', '', #135 ) ;
#73 = PERSON_AND_ORGANIZATION ( #98, #160 ) ;
#74 = PLANE ( 'NONE',  #102 ) ;
#75 = CARTESIAN_POINT ( 'NONE',  ( 2.129803616694311221E-13, 1.199999999999993960, 61.00000000000000000 ) ) ;
#76 = VERTEX_POINT ( 'NONE', #200 ) ;
#77 = DIRECTION ( 'NONE',  ( -3.491481338843133355E-15, 1.224646799147353454E-16, -1.000000000000000000 ) ) ;
#78 = DIRECTION ( 'NONE',  ( 0.0000000000000000000, 1.000000000000000000, 0.0000000000000000000 ) ) ;
#79 = ORIENTED_EDGE ( 'NONE', *, *, #147, .F. ) ;
#80 = PRODUCT_RELATED_PRODUCT_CATEGORY ( 'detail', '', ( #25 ) ) ;
#81 = ORIENTED_EDGE ( 'NONE', *, *, #280, .T. ) ;
#82 = AXIS2_PLACEMENT_3D ( 'NONE', #287, #188, #264 ) ;
#83 = ORIENTED_EDGE ( 'NONE', *, *, #30, .F. ) ;
#84 = EDGE_LOOP ( 'NONE', ( #81 ) ) ;
#85 = DIRECTION ( 'NONE',  ( 4.275831445896959482E-31, 1.000000000000000000, 1.224646799147353454E-16 ) ) ;
#86 = DIRECTION ( 'NONE',  ( 0.0000000000000000000, 0.0000000000000000000, 1.000000000000000000 ) ) ;
#87 = CC_DESIGN_APPROVAL ( #270, ( #39 ) ) ;
#88 = DIRECTION ( 'NONE',  ( 3.491481338843133355E-15, -1.224646799147353454E-16, 1.000000000000000000 ) ) ;
#89 = DATE_TIME_ROLE ( 'classification_date' ) ;
#90 = ADVANCED_FACE ( 'NONE', ( #123 ), #7, .F. ) ;
#91 = DIRECTION ( 'NONE',  ( 3.491481338843133355E-15, -1.224646799147353454E-16, 1.000000000000000000 ) ) ;
#92 = APPROVAL_ROLE ( '' ) ;
#93 = DIRECTION ( 'NONE',  ( -3.491481338843133355E-15, 1.224646799147353454E-16, -1.000000000000000000 ) ) ;
#94 = APPLICATION_PROTOCOL_DEFINITION ( 'international standard', 'config_control_design', 1994, #21 ) ;
#95 = AXIS2_PLACEMENT_3D ( 'NONE', #202, #276, #101 ) ;
#96 = CARTESIAN_POINT ( 'NONE',  ( 3.614546398369628854E-14, -1.267812211363458297E-15, 10.35247233934027378 ) ) ;
#97 = CIRCLE ( 'NONE', #278, 1.323499999999999899 ) ;
#98 = PERSON ( 'UNSPECIFIED', 'UNSPECIFIED', 'UNSPECIFIED', ('UNSPECIFIED'), ('UNSPECIFIED'), ('UNSPECIFIED') ) ;
#99 = CARTESIAN_POINT ( 'NONE',  ( 9.542240990659662883E-14, -3.346967591061512604E-15, 27.33006441850663748 ) ) ;
#100 = DIRECTION ( 'NONE',  ( -3.491481338843133355E-15, 1.224646799147353454E-16, -1.000000000000000000 ) ) ;
#101 = DIRECTION ( 'NONE',  ( 0.0000000000000000000, 1.000000000000000000, 0.0000000000000000000 ) ) ;
#102 = AXIS2_PLACEMENT_3D ( 'NONE', #168, #141, #37 ) ;
#103 = CARTESIAN_POINT ( 'NONE',  ( -3.785471652766324464E-31, 1.179162432702594021, -1.084202172485504681E-16 ) ) ;
#104 = CARTESIAN_POINT ( 'NONE',  ( 0.0000000000000000000, 0.0000000000000000000, 0.0000000000000000000 ) ) ;
#105 = CC_DESIGN_PERSON_AND_ORGANIZATION_ASSIGNMENT ( #27, #70, ( #72 ) ) ;
#106 = APPLICATION_CONTEXT ( 'configuration controlled 3d designs of mechanical parts and assemblies' ) ;
#107 = EDGE_LOOP ( 'NONE', ( #155 ) ) ;
#108 = CIRCLE ( 'NONE', #175, 1.119999999999998330 ) ;
#109 = ORIENTED_EDGE ( 'NONE', *, *, #143, .F. ) ;
#110 = ORIENTED_EDGE ( 'NONE', *, *, #280, .F. ) ;
#111 = AXIS2_PLACEMENT_3D ( 'NONE', #245, #88, #214 ) ;
#112 = CARTESIAN_POINT ( 'NONE',  ( 2.129803616694311221E-13, 8.998558695971049855E-33, 61.00000000000000000 ) ) ;
#113 = APPROVAL_DATE_TIME ( #48, #237 ) ;
#114 = CC_DESIGN_DATE_AND_TIME_ASSIGNMENT ( #263, #89, ( #72 ) ) ;
#115 = DIRECTION ( 'NONE',  ( 0.0000000000000000000, 1.000000000000000000, 0.0000000000000000000 ) ) ;
#116 = CALENDAR_DATE ( 2021, 30, 11 ) ;
#117 = AXIS2_PLACEMENT_3D ( 'NONE', #166, #289, #85 ) ;
#118 = CC_DESIGN_APPROVAL ( #220, ( #72 ) ) ;
#119 = FACE_OUTER_BOUND ( 'NONE', #176, .T. ) ;
#120 = APPROVAL_STATUS ( 'not_yet_approved' ) ;
#121 = PLANE ( 'NONE',  #124 ) ;
#122 = PERSON_AND_ORGANIZATION ( #98, #160 ) ;
#123 = FACE_OUTER_BOUND ( 'NONE', #235, .T. ) ;
#124 = AXIS2_PLACEMENT_3D ( 'NONE', #112, #163, #194 ) ;
#125 = DIRECTION ( 'NONE',  ( 0.0000000000000000000, -1.000000000000000000, 0.0000000000000000000 ) ) ;
#126 = VERTEX_POINT ( 'NONE', #75 ) ;
#127 = AXIS2_PLACEMENT_3D ( 'NONE', #104, #86, #246 ) ;
#128 = PLANE ( 'NONE',  #283 ) ;
#129 = EDGE_LOOP ( 'NONE', ( #259 ) ) ;
#130 =( GEOMETRIC_REPRESENTATION_CONTEXT ( 3 ) GLOBAL_UNCERTAINTY_ASSIGNED_CONTEXT ( ( #286 ) ) GLOBAL_UNIT_ASSIGNED_CONTEXT ( ( #249, #36, #152 ) ) REPRESENTATION_CONTEXT ( 'NONE', 'WORKASPACE' ) );
#131 = ORIENTED_EDGE ( 'NONE', *, *, #279, .F. ) ;
#132 = ADVANCED_FACE ( 'NONE', ( #216, #11 ), #242, .T. ) ;
#133 = CIRCLE ( 'NONE', #288, 1.150384493975580513 ) ;
#134 = DIRECTION ( 'NONE',  ( -3.491481338843133355E-15, 1.224646799147353454E-16, -1.000000000000000000 ) ) ;
#135 = SECURITY_CLASSIFICATION_LEVEL ( 'unclassified' ) ;
#136 = PRODUCT_DEFINITION ( 'UNKNOWN', '', #39, #157 ) ;
#137 = FACE_OUTER_BOUND ( 'NONE', #234, .T. ) ;
#138 = CARTESIAN_POINT ( 'NONE',  ( 9.542240990659662883E-14, -3.346967591061512604E-15, 27.33006441850663748 ) ) ;
#139 = PERSON_AND_ORGANIZATION_ROLE ( 'creator' ) ;
#140 = AXIS2_PLACEMENT_3D ( 'NONE', #223, #16, #15 ) ;
#141 = DIRECTION ( 'NONE',  ( 3.491481338843133355E-15, -1.224646799147353454E-16, 1.000000000000000000 ) ) ;
#142 = PERSON_AND_ORGANIZATION ( #98, #160 ) ;
#143 = EDGE_CURVE ( 'NONE', #300, #300, #108, .T. ) ;
#144 = CARTESIAN_POINT ( 'NONE',  ( -8.827371462336433677E-31, 3.096225113956050721E-32, -2.528259671369543239E-16 ) ) ;
#145 = CONICAL_SURFACE ( 'NONE', #183, 1.200000000000001510, 0.7853981633974453924 ) ;
#146 = VERTEX_POINT ( 'NONE', #196 ) ;
#147 = EDGE_CURVE ( 'NONE', #251, #251, #5, .T. ) ;
#148 = CARTESIAN_POINT ( 'NONE',  ( 8.728703347107833388E-14, 1.119999999999996776, 25.00000000000000000 ) ) ;
#149 = DIRECTION ( 'NONE',  ( 0.0000000000000000000, 1.000000000000000000, 0.0000000000000000000 ) ) ;
#150 = AXIS2_PLACEMENT_3D ( 'NONE', #185, #134, #265 ) ;
#151 = CC_DESIGN_PERSON_AND_ORGANIZATION_ASSIGNMENT ( #268, #6, ( #39 ) ) ;
#152 =( NAMED_UNIT ( * ) SI_UNIT ( $, .STERADIAN. ) SOLID_ANGLE_UNIT ( ) );
#153 = EDGE_LOOP ( 'NONE', ( #131 ) ) ;
#154 = CC_DESIGN_PERSON_AND_ORGANIZATION_ASSIGNMENT ( #73, #292, ( #39 ) ) ;
#155 = ORIENTED_EDGE ( 'NONE', *, *, #147, .T. ) ;
#156 = EDGE_LOOP ( 'NONE', ( #61 ) ) ;
#157 = DESIGN_CONTEXT ( 'detailed design', #21, 'design' ) ;
#158 = DATE_TIME_ROLE ( 'creation_date' ) ;
#159 = ADVANCED_FACE ( 'NONE', ( #238, #69 ), #302, .T. ) ;
#160 = ORGANIZATION ( 'UNSPECIFIED', 'UNSPECIFIED', '' ) ;
#161 = DIRECTION ( 'NONE',  ( 4.275831445896959482E-31, 1.000000000000000000, 1.224646799147353454E-16 ) ) ;
#162 = CARTESIAN_POINT ( 'NONE',  ( 0.0000000000000000000, 0.0000000000000000000, 0.0000000000000000000 ) ) ;
#163 = DIRECTION ( 'NONE',  ( -3.491481338843133355E-15, 1.224646799147353454E-16, -1.000000000000000000 ) ) ;
#164 = APPROVAL_ROLE ( '' ) ;
#165 = CIRCLE ( 'NONE', #140, 1.323499999999999899 ) ;
#166 = CARTESIAN_POINT ( 'NONE',  ( 8.728703347107833388E-14, -3.035766082959412415E-15, 25.00000000000000000 ) ) ;
#167 = CALENDAR_DATE ( 2021, 30, 11 ) ;
#168 = CARTESIAN_POINT ( 'NONE',  ( 3.491481338843133355E-14, 9.924660361764825669E-33, 10.00000000000000000 ) ) ;
#169 = VERTEX_POINT ( 'NONE', #103 ) ;
#170 = ADVANCED_FACE ( 'NONE', ( #211 ), #121, .F. ) ;
#171 = CONICAL_SURFACE ( 'NONE', #111, 1.323499999999998566, 0.5235987755982924874 ) ;
#172 = DIRECTION ( 'NONE',  ( -4.275831445896959482E-31, -1.000000000000000000, -1.224646799147353454E-16 ) ) ;
#173 = FACE_OUTER_BOUND ( 'NONE', #179, .T. ) ;
#174 = FACE_OUTER_BOUND ( 'NONE', #208, .T. ) ;
#175 = AXIS2_PLACEMENT_3D ( 'NONE', #46, #32, #44 ) ;
#176 = EDGE_LOOP ( 'NONE', ( #109 ) ) ;
#177 = ORIENTED_EDGE ( 'NONE', *, *, #279, .T. ) ;
#178 = AXIS2_PLACEMENT_3D ( 'NONE', #99, #277, #125 ) ;
#179 = EDGE_LOOP ( 'NONE', ( #204 ) ) ;
#180 = EDGE_LOOP ( 'NONE', ( #232 ) ) ;
#181 = DIRECTION ( 'NONE',  ( 0.0000000000000000000, 1.000000000000000000, 0.0000000000000000000 ) ) ;
#182 = APPROVAL_STATUS ( 'not_yet_approved' ) ;
#183 = AXIS2_PLACEMENT_3D ( 'NONE', #14, #272, #149 ) ;
#184 = PRODUCT_DEFINITION_SHAPE ( 'NONE', 'NONE',  #136 ) ;
#185 = CARTESIAN_POINT ( 'NONE',  ( 0.0000000000000000000, 0.0000000000000000000, 0.0000000000000000000 ) ) ;
#186 = APPROVAL_STATUS ( 'not_yet_approved' ) ;
#187 = ADVANCED_FACE ( 'NONE', ( #191, #2 ), #193, .F. ) ;
#188 = DIRECTION ( 'NONE',  ( -3.491481338843133355E-15, 1.224646799147353454E-16, -1.000000000000000000 ) ) ;
#189 = DATE_AND_TIME ( #266, #207 ) ;
#190 = CC_DESIGN_PERSON_AND_ORGANIZATION_ASSIGNMENT ( #33, #51, ( #25 ) ) ;
#191 = FACE_OUTER_BOUND ( 'NONE', #282, .T. ) ;
#192 = COORDINATED_UNIVERSAL_TIME_OFFSET ( 1, 0, .AHEAD. ) ;
#193 = TOROIDAL_SURFACE ( 'NONE', #117, 3.120000000000000107, 2.000000000000000888 ) ;
#194 = DIRECTION ( 'NONE',  ( 4.275831445896959482E-31, 1.000000000000000000, 1.224646799147353454E-16 ) ) ;
#195 = APPROVAL_ROLE ( '' ) ;
#196 = CARTESIAN_POINT ( 'NONE',  ( 8.849961221477469775E-14, 1.150384493975577405, 25.34729635533384595 ) ) ;
#197 = ADVANCED_FACE ( 'NONE', ( #137, #296 ), #267, .T. ) ;
#198 = CARTESIAN_POINT ( 'NONE',  ( 2.119329172677781757E-13, 1.499999999999994005, 60.69999999999999574 ) ) ;
#199 = CONICAL_SURFACE ( 'NONE', #178, 1.499999999999996003, 0.1745329251994263975 ) ;
#200 = CARTESIAN_POINT ( 'NONE',  ( 9.542240990659662883E-14, 1.499999999999992673, 27.33006441850663748 ) ) ;
#201 = VERTEX_POINT ( 'NONE', #17 ) ;
#202 = CARTESIAN_POINT ( 'NONE',  ( 2.129803616694311221E-13, -7.470345474798856659E-15, 61.00000000000000000 ) ) ;
#203 = AXIS2_PLACEMENT_3D ( 'NONE', #96, #68, #115 ) ;
#204 = ORIENTED_EDGE ( 'NONE', *, *, #250, .F. ) ;
#205 = EDGE_LOOP ( 'NONE', ( #281 ) ) ;
#206 = FACE_BOUND ( 'NONE', #64, .T. ) ;
#207 = LOCAL_TIME ( 10, 37, 0.0000000000000000000, #45 ) ;
#208 = EDGE_LOOP ( 'NONE', ( #20 ) ) ;
#209 = DIRECTION ( 'NONE',  ( -3.491481338843133355E-15, 1.224646799147353454E-16, -1.000000000000000000 ) ) ;
#210 = EDGE_CURVE ( 'NONE', #146, #146, #133, .T. ) ;
#211 = FACE_OUTER_BOUND ( 'NONE', #153, .T. ) ;
#212 = CALENDAR_DATE ( 2021, 30, 11 ) ;
#213 = AXIS2_PLACEMENT_3D ( 'NONE', #138, #26, #181 ) ;
#214 = DIRECTION ( 'NONE',  ( -4.365538219238167041E-31, -1.000000000000000000, -1.228789768589541735E-16 ) ) ;
#215 = PERSON_AND_ORGANIZATION ( #98, #160 ) ;
#216 = FACE_OUTER_BOUND ( 'NONE', #303, .T. ) ;
#217 = MECHANICAL_CONTEXT ( 'NONE', #106, 'mechanical' ) ;
#218 = FACE_OUTER_BOUND ( 'NONE', #180, .T. ) ;
#219 = ADVANCED_FACE ( 'NONE', ( #52 ), #74, .F. ) ;
#220 = APPROVAL ( #186, 'UNSPECIFIED' ) ;
#221 = DIRECTION ( 'NONE',  ( 4.275831445896960358E-31, 1.000000000000000000, 1.224646799147353700E-16 ) ) ;
#222 = CARTESIAN_POINT ( 'NONE',  ( 8.728703347107833388E-14, -3.061616997868383831E-15, 25.00000000000000000 ) ) ;
#223 = CARTESIAN_POINT ( 'NONE',  ( 3.491481338843133355E-14, -1.224646799147353454E-15, 10.00000000000000000 ) ) ;
#224 = AXIS2_PLACEMENT_3D ( 'NONE', #144, #100, #221 ) ;
#225 = DIRECTION ( 'NONE',  ( 0.0000000000000000000, 1.000000000000000000, 0.0000000000000000000 ) ) ;
#226 = EDGE_CURVE ( 'NONE', #40, #40, #299, .T. ) ;
#227 = ADVANCED_FACE ( 'NONE', ( #173 ), #128, .T. ) ;
#228 = CARTESIAN_POINT ( 'NONE',  ( 3.491481338843133355E-14, -1.224646799147353454E-15, 10.00000000000000000 ) ) ;
#229 = ORIENTED_EDGE ( 'NONE', *, *, #284, .F. ) ;
#230 = ADVANCED_FACE ( 'NONE', ( #34, #174 ), #199, .T. ) ;
#231 = LOCAL_TIME ( 10, 37, 0.0000000000000000000, #240 ) ;
#232 = ORIENTED_EDGE ( 'NONE', *, *, #226, .T. ) ;
#233 = LOCAL_TIME ( 10, 37, 0.0000000000000000000, #10 ) ;
#234 = EDGE_LOOP ( 'NONE', ( #79 ) ) ;
#235 = EDGE_LOOP ( 'NONE', ( #63 ) ) ;
#236 = AXIS2_PLACEMENT_3D ( 'NONE', #222, #54, #78 ) ;
#237 = APPROVAL ( #120, 'UNSPECIFIED' ) ;
#238 = FACE_OUTER_BOUND ( 'NONE', #23, .T. ) ;
#239 = COORDINATED_UNIVERSAL_TIME_OFFSET ( 1, 0, .AHEAD. ) ;
#240 = COORDINATED_UNIVERSAL_TIME_OFFSET ( 1, 0, .AHEAD. ) ;
#241 = CC_DESIGN_PERSON_AND_ORGANIZATION_ASSIGNMENT ( #215, #139, ( #136 ) ) ;
#242 = CYLINDRICAL_SURFACE ( 'NONE', #150, 1.499999999999998668 ) ;
#243 = CARTESIAN_POINT ( 'NONE',  ( 2.119329172677781757E-13, -7.433606070824434221E-15, 60.69999999999999574 ) ) ;
#244 = APPROVAL_DATE_TIME ( #53, #220 ) ;
#245 = CARTESIAN_POINT ( 'NONE',  ( 8.728703347107827472E-16, -3.061616997868381785E-17, 0.2499999999999998335 ) ) ;
#246 = DIRECTION ( 'NONE',  ( 1.000000000000000000, 0.0000000000000000000, 0.0000000000000000000 ) ) ;
#247 = ADVANCED_BREP_SHAPE_REPRESENTATION ( '962551', ( #297, #294, #127 ), #130 ) ;
#248 = CC_DESIGN_APPROVAL ( #237, ( #136 ) ) ;
#249 =( LENGTH_UNIT ( ) NAMED_UNIT ( * ) SI_UNIT ( .MILLI., .METRE. ) );
#250 = EDGE_CURVE ( 'NONE', #56, #56, #97, .T. ) ;
#251 = VERTEX_POINT ( 'NONE', #298 ) ;
#252 = CLOSED_SHELL ( 'NONE', ( #90, #3, #197, #227 ) ) ;
#253 = AXIS2_PLACEMENT_3D ( 'NONE', #4, #209, #161 ) ;
#254 = APPLICATION_PROTOCOL_DEFINITION ( 'international standard', 'config_control_design', 1994, #106 ) ;
#255 = ADVANCED_FACE ( 'NONE', ( #58, #273 ), #145, .T. ) ;
#256 = EDGE_LOOP ( 'NONE', ( #177 ) ) ;
#257 = CLOSED_SHELL ( 'NONE', ( #219, #159, #41, #187, #230, #132, #255, #170 ) ) ;
#258 = CIRCLE ( 'NONE', #213, 1.499999999999996003 ) ;
#259 = ORIENTED_EDGE ( 'NONE', *, *, #250, .T. ) ;
#260 = EDGE_LOOP ( 'NONE', ( #65 ) ) ;
#261 = EDGE_LOOP ( 'NONE', ( #18 ) ) ;
#262 = ORIENTED_EDGE ( 'NONE', *, *, #226, .F. ) ;
#263 = DATE_AND_TIME ( #271, #12 ) ;
#264 = DIRECTION ( 'NONE',  ( 4.365538219238167041E-31, 1.000000000000000000, 1.228789768589541735E-16 ) ) ;
#265 = DIRECTION ( 'NONE',  ( 4.275831445896960358E-31, 1.000000000000000000, 1.224646799147353454E-16 ) ) ;
#266 = CALENDAR_DATE ( 2021, 30, 11 ) ;
#267 = CYLINDRICAL_SURFACE ( 'NONE', #43, 1.323499999999999233 ) ;
#268 = PERSON_AND_ORGANIZATION ( #98, #160 ) ;
#269 = DIRECTION ( 'NONE',  ( 0.0000000000000000000, 1.000000000000000000, 0.0000000000000000000 ) ) ;
#270 = APPROVAL ( #182, 'UNSPECIFIED' ) ;
#271 = CALENDAR_DATE ( 2021, 30, 11 ) ;
#272 = DIRECTION ( 'NONE',  ( -3.491481338843133355E-15, 1.224646799147353454E-16, -1.000000000000000000 ) ) ;
#273 = FACE_BOUND ( 'NONE', #256, .T. ) ;
#274 = APPROVAL_PERSON_ORGANIZATION ( #122, #220, #164 ) ;
#275 = CARTESIAN_POINT ( 'NONE',  ( 3.491481338843133355E-14, 1.323499999999998566, 10.00000000000000000 ) ) ;
#276 = DIRECTION ( 'NONE',  ( -3.491481338843133355E-15, 1.224646799147353454E-16, -1.000000000000000000 ) ) ;
#277 = DIRECTION ( 'NONE',  ( 3.491481338843133355E-15, -1.224646799147353454E-16, 1.000000000000000000 ) ) ;
#278 = AXIS2_PLACEMENT_3D ( 'NONE', #228, #77, #225 ) ;
#279 = EDGE_CURVE ( 'NONE', #126, #126, #62, .T. ) ;
#280 = EDGE_CURVE ( 'NONE', #201, #201, #165, .T. ) ;
#281 = ORIENTED_EDGE ( 'NONE', *, *, #210, .F. ) ;
#282 = EDGE_LOOP ( 'NONE', ( #262 ) ) ;
#283 = AXIS2_PLACEMENT_3D ( 'NONE', #301, #38, #172 ) ;
#284 = EDGE_CURVE ( 'NONE', #169, #169, #50, .T. ) ;
#285 = EDGE_LOOP ( 'NONE', ( #83 ) ) ;
#286 = UNCERTAINTY_MEASURE_WITH_UNIT (LENGTH_MEASURE( 1.000000000000000082E-05 ), #249, 'distance_accuracy_value', 'NONE');
#287 = CARTESIAN_POINT ( 'NONE',  ( 8.728703347107827472E-16, -3.061616997868381785E-17, 0.2499999999999998335 ) ) ;
#288 = AXIS2_PLACEMENT_3D ( 'NONE', #47, #49, #269 ) ;
#289 = DIRECTION ( 'NONE',  ( -3.491481338843133355E-15, 1.224646799147353454E-16, -1.000000000000000000 ) ) ;
#290 = SHAPE_DEFINITION_REPRESENTATION ( #184, #247 ) ;
#291 = DIRECTION ( 'NONE',  ( -4.275831445896959482E-31, -1.000000000000000000, -1.224646799147353454E-16 ) ) ;
#292 = PERSON_AND_ORGANIZATION_ROLE ( 'design_supplier' ) ;
#293 = APPROVAL_DATE_TIME ( #189, #270 ) ;
#294 = MANIFOLD_SOLID_BREP ( 'Corps-Déplacer/Copier1[2]', #252 ) ;
#295 = AXIS2_PLACEMENT_3D ( 'NONE', #243, #93, #67 ) ;
#296 = FACE_OUTER_BOUND ( 'NONE', #129, .T. ) ;
#297 = MANIFOLD_SOLID_BREP ( 'Corps-Déplacer/Copier1[1]', #257 ) ;
#298 = CARTESIAN_POINT ( 'NONE',  ( 8.728703347107833388E-16, 1.323499999999998566, 0.2500000000000000000 ) ) ;
#299 = CIRCLE ( 'NONE', #236, 1.119999999999999885 ) ;
#300 = VERTEX_POINT ( 'NONE', #13 ) ;
#301 = CARTESIAN_POINT ( 'NONE',  ( 3.491481338843133355E-14, 9.924660361764825669E-33, 10.00000000000000000 ) ) ;
#302 = CONICAL_SURFACE ( 'NONE', #203, 1.119999999999998330, 0.5235987755982925984 ) ;
#303 = EDGE_LOOP ( 'NONE', ( #42 ) ) ;
ENDSEC;
END-ISO-10303-21;
