ISO-10303-21;
HEADER;
FILE_DESCRIPTION (( 'STEP AP203' ),
    '1' );
FILE_NAME ('962361.step',
    '2021-11-30T06:45:14',
    ( '' ),
    ( '' ),
    'SwSTEP 2.0',
    'SolidWorks 2019',
    '' );
FILE_SCHEMA (( 'CONFIG_CONTROL_DESIGN' ));
ENDSEC;

DATA;
#1 = SECURITY_CLASSIFICATION_LEVEL ( 'unclassified' ) ;
#2 = CIRCLE ( 'NONE', #135, 1.193499999999994898 ) ;
#3 = VERTEX_POINT ( 'NONE', #50 ) ;
#4 = PERSON_AND_ORGANIZATION_ROLE ( 'design_owner' ) ;
#5 = CARTESIAN_POINT ( 'NONE',  ( 8.728703347107835360E-16, 1.193499999999993566, 0.2500000000000000555 ) ) ;
#6 = COORDINATED_UNIVERSAL_TIME_OFFSET ( 1, 0, .AHEAD. ) ;
#7 = CIRCLE ( 'NONE', #46, 1.049162432702589243 ) ;
#8 = ORIENTED_EDGE ( 'NONE', *, *, #16, .F. ) ;
#9 = CIRCLE ( 'NONE', #126, 1.070384493975581774 ) ;
#10 = DIRECTION ( 'NONE',  ( 4.275831445896958607E-31, 1.000000000000000000, 1.224646799147353454E-16 ) ) ;
#11 = FACE_OUTER_BOUND ( 'NONE', #127, .T. ) ;
#12 = FACE_OUTER_BOUND ( 'NONE', #37, .T. ) ;
#13 = ORIENTED_EDGE ( 'NONE', *, *, #99, .F. ) ;
#14 = CARTESIAN_POINT ( 'NONE',  ( 1.745740669421566678E-13, -6.123233995736766085E-15, 50.00000000000000000 ) ) ;
#15 = ORIENTED_EDGE ( 'NONE', *, *, #16, .T. ) ;
#16 = EDGE_CURVE ( 'NONE', #234, #234, #134, .T. ) ;
#17 = DIRECTION ( 'NONE',  ( -3.491481338843133355E-15, 1.224646799147353207E-16, -1.000000000000000000 ) ) ;
#18 = ADVANCED_FACE ( 'NONE', ( #43 ), #133, .F. ) ;
#19 = CARTESIAN_POINT ( 'NONE',  ( 3.491481338843133355E-14, 1.193499999999993566, 10.00000000000000000 ) ) ;
#20 = DIRECTION ( 'NONE',  ( -3.491481338843133355E-15, 1.224646799147353207E-16, -1.000000000000000000 ) ) ;
#21 = CIRCLE ( 'NONE', #233, 1.200000000000001732 ) ;
#22 = ADVANCED_FACE ( 'NONE', ( #273, #11 ), #229, .T. ) ;
#23 = CARTESIAN_POINT ( 'NONE',  ( 7.104220552055900573E-14, -2.491825135286219437E-15, 20.34729635533384240 ) ) ;
#24 = MANIFOLD_SOLID_BREP ( 'Corps-Déplacer/Copier1[2]', #82 ) ;
#25 = DATE_AND_TIME ( #236, #60 ) ;
#26 = ADVANCED_FACE ( 'NONE', ( #66, #152 ), #144, .F. ) ;
#27 = PERSON_AND_ORGANIZATION_ROLE ( 'classification_officer' ) ;
#28 = PERSON ( 'UNSPECIFIED', 'UNSPECIFIED', 'UNSPECIFIED', ('UNSPECIFIED'), ('UNSPECIFIED'), ('UNSPECIFIED') ) ;
#29 =( GEOMETRIC_REPRESENTATION_CONTEXT ( 3 ) GLOBAL_UNCERTAINTY_ASSIGNED_CONTEXT ( ( #40 ) ) GLOBAL_UNIT_ASSIGNED_CONTEXT ( ( #219, #81, #208 ) ) REPRESENTATION_CONTEXT ( 'NONE', 'WORKASPACE' ) );
#30 = PERSON_AND_ORGANIZATION ( #28, #78 ) ;
#31 = VERTEX_POINT ( 'NONE', #214 ) ;
#32 = PERSON_AND_ORGANIZATION ( #28, #78 ) ;
#33 = DATE_TIME_ROLE ( 'classification_date' ) ;
#34 = CC_DESIGN_PERSON_AND_ORGANIZATION_ASSIGNMENT ( #104, #264, ( #193 ) ) ;
#35 = EDGE_LOOP ( 'NONE', ( #197 ) ) ;
#36 = FACE_OUTER_BOUND ( 'NONE', #83, .T. ) ;
#37 = EDGE_LOOP ( 'NONE', ( #218 ) ) ;
#38 = DIRECTION ( 'NONE',  ( -3.491481338843133355E-15, 1.224646799147353207E-16, -1.000000000000000000 ) ) ;
#39 = ORIENTED_EDGE ( 'NONE', *, *, #163, .F. ) ;
#40 = UNCERTAINTY_MEASURE_WITH_UNIT (LENGTH_MEASURE( 1.000000000000000082E-05 ), #219, 'distance_accuracy_value', 'NONE');
#41 = DIRECTION ( 'NONE',  ( -3.491481338843133355E-15, 1.224646799147353207E-16, -1.000000000000000000 ) ) ;
#42 = DIRECTION ( 'NONE',  ( 0.0000000000000000000, 1.000000000000000000, 0.0000000000000000000 ) ) ;
#43 = FACE_OUTER_BOUND ( 'NONE', #64, .T. ) ;
#44 = CC_DESIGN_DATE_AND_TIME_ASSIGNMENT ( #240, #33, ( #297 ) ) ;
#45 = FACE_OUTER_BOUND ( 'NONE', #289, .T. ) ;
#46 = AXIS2_PLACEMENT_3D ( 'NONE', #72, #252, #49 ) ;
#47 = ADVANCED_FACE ( 'NONE', ( #132, #36 ), #112, .T. ) ;
#48 = CARTESIAN_POINT ( 'NONE',  ( 1.735266225405037467E-13, -6.086494591762345225E-15, 49.70000000000000284 ) ) ;
#49 = DIRECTION ( 'NONE',  ( 4.275831445896958607E-31, 1.000000000000000000, 1.224646799147353207E-16 ) ) ;
#50 = CARTESIAN_POINT ( 'NONE',  ( 1.735266225405037467E-13, 1.499999999999995559, 49.70000000000000284 ) ) ;
#51 = CONICAL_SURFACE ( 'NONE', #97, 1.499999999999996669, 0.1745329251994257591 ) ;
#52 = APPROVAL_STATUS ( 'not_yet_approved' ) ;
#53 = EDGE_CURVE ( 'NONE', #159, #159, #161, .T. ) ;
#54 = AXIS2_PLACEMENT_3D ( 'NONE', #225, #292, #61 ) ;
#55 = VERTEX_POINT ( 'NONE', #182 ) ;
#56 = SHAPE_DEFINITION_REPRESENTATION ( #190, #122 ) ;
#57 = DATE_TIME_ROLE ( 'creation_date' ) ;
#58 = ORIENTED_EDGE ( 'NONE', *, *, #224, .T. ) ;
#59 = AXIS2_PLACEMENT_3D ( 'NONE', #151, #38, #131 ) ;
#60 = LOCAL_TIME ( 7, 45, 14.00000000000000000, #119 ) ;
#61 = DIRECTION ( 'NONE',  ( -4.275831445896958607E-31, -1.000000000000000000, -1.224646799147353207E-16 ) ) ;
#62 = PLANE ( 'NONE',  #222 ) ;
#63 = CC_DESIGN_PERSON_AND_ORGANIZATION_ASSIGNMENT ( #30, #235, ( #290 ) ) ;
#64 = EDGE_LOOP ( 'NONE', ( #58 ) ) ;
#65 = CARTESIAN_POINT ( 'NONE',  ( 1.745740669421566678E-13, -6.123233995736766085E-15, 50.00000000000000000 ) ) ;
#66 = FACE_OUTER_BOUND ( 'NONE', #228, .T. ) ;
#67 = CARTESIAN_POINT ( 'NONE',  ( 6.982962677686266711E-14, -2.602085213965210642E-15, 20.00000000000000000 ) ) ;
#68 = EDGE_LOOP ( 'NONE', ( #105 ) ) ;
#69 = DIRECTION ( 'NONE',  ( -3.491481338843133355E-15, 1.224646799147353207E-16, -1.000000000000000000 ) ) ;
#70 = FACE_BOUND ( 'NONE', #298, .T. ) ;
#71 = APPROVAL_PERSON_ORGANIZATION ( #188, #227, #164 ) ;
#72 = CARTESIAN_POINT ( 'NONE',  ( -6.378777547986643695E-31, 2.237373982128510760E-32, -1.826954501237628555E-16 ) ) ;
#73 = CARTESIAN_POINT ( 'NONE',  ( 3.491481338843133355E-14, -1.224646799147353256E-15, 10.00000000000000000 ) ) ;
#74 = AXIS2_PLACEMENT_3D ( 'NONE', #65, #176, #85 ) ;
#75 = CALENDAR_DATE ( 2021, 30, 11 ) ;
#76 = ADVANCED_FACE ( 'NONE', ( #267 ), #245, .F. ) ;
#77 = DIRECTION ( 'NONE',  ( 3.491481338843133355E-15, -1.224646799147353207E-16, 1.000000000000000000 ) ) ;
#78 = ORGANIZATION ( 'UNSPECIFIED', 'UNSPECIFIED', '' ) ;
#79 = APPROVAL_DATE_TIME ( #191, #91 ) ;
#80 = EDGE_LOOP ( 'NONE', ( #39 ) ) ;
#81 =( NAMED_UNIT ( * ) PLANE_ANGLE_UNIT ( ) SI_UNIT ( $, .RADIAN. ) );
#82 = CLOSED_SHELL ( 'NONE', ( #18, #22, #283, #147 ) ) ;
#83 = EDGE_LOOP ( 'NONE', ( #174 ) ) ;
#84 = LOCAL_TIME ( 7, 45, 14.00000000000000000, #6 ) ;
#85 = DIRECTION ( 'NONE',  ( 0.0000000000000000000, 1.000000000000000000, 0.0000000000000000000 ) ) ;
#86 = DIRECTION ( 'NONE',  ( 0.0000000000000000000, 1.000000000000000000, 0.0000000000000000000 ) ) ;
#87 = ADVANCED_FACE ( 'NONE', ( #12, #110 ), #220, .T. ) ;
#88 = DIRECTION ( 'NONE',  ( -4.275831445896958607E-31, -1.000000000000000000, -1.224646799147353207E-16 ) ) ;
#89 = EDGE_LOOP ( 'NONE', ( #15 ) ) ;
#90 = CC_DESIGN_APPROVAL ( #91, ( #193 ) ) ;
#91 = APPROVAL ( #257, 'UNSPECIFIED' ) ;
#92 = CARTESIAN_POINT ( 'NONE',  ( 6.982962677686266711E-14, -2.449293598294706513E-15, 20.00000000000000000 ) ) ;
#93 = CARTESIAN_POINT ( 'NONE',  ( 0.0000000000000000000, 0.0000000000000000000, 0.0000000000000000000 ) ) ;
#94 = DIRECTION ( 'NONE',  ( -3.491481338843133355E-15, 1.224646799147353207E-16, -1.000000000000000000 ) ) ;
#95 = EDGE_CURVE ( 'NONE', #301, #301, #2, .T. ) ;
#96 = FACE_OUTER_BOUND ( 'NONE', #80, .T. ) ;
#97 = AXIS2_PLACEMENT_3D ( 'NONE', #249, #77, #230 ) ;
#98 = VERTEX_POINT ( 'NONE', #260 ) ;
#99 = EDGE_CURVE ( 'NONE', #31, #31, #21, .T. ) ;
#100 = MECHANICAL_CONTEXT ( 'NONE', #255, 'mechanical' ) ;
#101 = CIRCLE ( 'NONE', #209, 1.500000000000001554 ) ;
#102 = DIRECTION ( 'NONE',  ( 0.0000000000000000000, 1.000000000000000000, 0.0000000000000000000 ) ) ;
#103 = APPROVAL_ROLE ( '' ) ;
#104 = PERSON_AND_ORGANIZATION ( #28, #78 ) ;
#105 = ORIENTED_EDGE ( 'NONE', *, *, #224, .F. ) ;
#106 = DIRECTION ( 'NONE',  ( -3.491481338843133355E-15, 1.224646799147353207E-16, -1.000000000000000000 ) ) ;
#107 = AXIS2_PLACEMENT_3D ( 'NONE', #67, #106, #299 ) ;
#108 = FACE_OUTER_BOUND ( 'NONE', #248, .T. ) ;
#109 = EDGE_LOOP ( 'NONE', ( #154 ) ) ;
#110 = FACE_OUTER_BOUND ( 'NONE', #89, .T. ) ;
#111 = DIRECTION ( 'NONE',  ( 3.491481338843133355E-15, -1.224646799147353207E-16, 1.000000000000000000 ) ) ;
#112 = CYLINDRICAL_SURFACE ( 'NONE', #266, 1.499999999999999112 ) ;
#113 = ORIENTED_EDGE ( 'NONE', *, *, #278, .F. ) ;
#114 = CYLINDRICAL_SURFACE ( 'NONE', #130, 1.193499999999994232 ) ;
#115 = CC_DESIGN_PERSON_AND_ORGANIZATION_ASSIGNMENT ( #146, #211, ( #290 ) ) ;
#116 = DIRECTION ( 'NONE',  ( 0.0000000000000000000, 1.000000000000000000, 0.0000000000000000000 ) ) ;
#117 = DIRECTION ( 'NONE',  ( 0.0000000000000000000, 1.000000000000000000, 0.0000000000000000000 ) ) ;
#118 = VERTEX_POINT ( 'NONE', #205 ) ;
#119 = COORDINATED_UNIVERSAL_TIME_OFFSET ( 1, 0, .AHEAD. ) ;
#120 = LOCAL_TIME ( 7, 45, 14.00000000000000000, #261 ) ;
#121 = DATE_AND_TIME ( #143, #281 ) ;
#122 = ADVANCED_BREP_SHAPE_REPRESENTATION ( '962361', ( #125, #24, #217 ), #29 ) ;
#123 = CARTESIAN_POINT ( 'NONE',  ( 8.728703347107829444E-16, -3.061616997868381785E-17, 0.2499999999999998890 ) ) ;
#124 = CALENDAR_DATE ( 2021, 30, 11 ) ;
#125 = MANIFOLD_SOLID_BREP ( 'Corps-Déplacer/Copier1[1]', #185 ) ;
#126 = AXIS2_PLACEMENT_3D ( 'NONE', #23, #276, #210 ) ;
#127 = EDGE_LOOP ( 'NONE', ( #200 ) ) ;
#128 = EDGE_LOOP ( 'NONE', ( #247 ) ) ;
#129 = EDGE_LOOP ( 'NONE', ( #243 ) ) ;
#130 = AXIS2_PLACEMENT_3D ( 'NONE', #203, #302, #179 ) ;
#131 = DIRECTION ( 'NONE',  ( 0.0000000000000000000, 1.000000000000000000, 0.0000000000000000000 ) ) ;
#132 = FACE_OUTER_BOUND ( 'NONE', #268, .T. ) ;
#133 = PLANE ( 'NONE',  #250 ) ;
#134 = CIRCLE ( 'NONE', #171, 1.039999999999999813 ) ;
#135 = AXIS2_PLACEMENT_3D ( 'NONE', #294, #291, #42 ) ;
#136 = DIRECTION ( 'NONE',  ( -3.491481338843133355E-15, 1.224646799147353207E-16, -1.000000000000000000 ) ) ;
#137 = FACE_OUTER_BOUND ( 'NONE', #150, .T. ) ;
#138 = FACE_OUTER_BOUND ( 'NONE', #168, .T. ) ;
#139 = ADVANCED_FACE ( 'NONE', ( #108, #199 ), #238, .T. ) ;
#140 = FACE_BOUND ( 'NONE', #109, .T. ) ;
#141 = PRODUCT_RELATED_PRODUCT_CATEGORY ( 'detail', '', ( #165 ) ) ;
#142 = APPROVAL_STATUS ( 'not_yet_approved' ) ;
#143 = CALENDAR_DATE ( 2021, 30, 11 ) ;
#144 = TOROIDAL_SURFACE ( 'NONE', #107, 3.040000000000000036, 2.000000000000000000 ) ;
#145 = VERTEX_POINT ( 'NONE', #5 ) ;
#146 = PERSON_AND_ORGANIZATION ( #28, #78 ) ;
#147 = ADVANCED_FACE ( 'NONE', ( #173 ), #62, .T. ) ;
#148 = ORIENTED_EDGE ( 'NONE', *, *, #53, .T. ) ;
#149 = CIRCLE ( 'NONE', #275, 1.499999999999996669 ) ;
#150 = EDGE_LOOP ( 'NONE', ( #13 ) ) ;
#151 = CARTESIAN_POINT ( 'NONE',  ( 3.584309283006850024E-14, -1.257206458976207263E-15, 10.26586979896181973 ) ) ;
#152 = FACE_OUTER_BOUND ( 'NONE', #128, .T. ) ;
#153 = CC_DESIGN_APPROVAL ( #227, ( #297 ) ) ;
#154 = ORIENTED_EDGE ( 'NONE', *, *, #202, .F. ) ;
#155 = DIRECTION ( 'NONE',  ( 3.491481338843133355E-15, -1.224646799147353207E-16, 1.000000000000000000 ) ) ;
#156 = CC_DESIGN_APPROVAL ( #206, ( #290 ) ) ;
#157 = DIRECTION ( 'NONE',  ( 0.0000000000000000000, 1.000000000000000000, 0.0000000000000000000 ) ) ;
#158 = CARTESIAN_POINT ( 'NONE',  ( 7.954909718362227349E-14, -2.790206728507497088E-15, 22.78376696407607227 ) ) ;
#159 = VERTEX_POINT ( 'NONE', #254 ) ;
#160 = APPLICATION_PROTOCOL_DEFINITION ( 'international standard', 'config_control_design', 1994, #255 ) ;
#161 = CIRCLE ( 'NONE', #59, 1.039999999999999147 ) ;
#162 = APPLICATION_PROTOCOL_DEFINITION ( 'international standard', 'config_control_design', 1994, #213 ) ;
#163 = EDGE_CURVE ( 'NONE', #118, #118, #172, .T. ) ;
#164 = APPROVAL_ROLE ( '' ) ;
#165 = PRODUCT ( '962361', '962361', '', ( #100 ) ) ;
#166 = CARTESIAN_POINT ( 'NONE',  ( 7.954909718362227349E-14, 1.499999999999994005, 22.78376696407607227 ) ) ;
#167 = APPROVAL_DATE_TIME ( #121, #227 ) ;
#168 = EDGE_LOOP ( 'NONE', ( #223 ) ) ;
#169 = DIRECTION ( 'NONE',  ( 0.0000000000000000000, 0.0000000000000000000, 1.000000000000000000 ) ) ;
#170 = EDGE_LOOP ( 'NONE', ( #263 ) ) ;
#171 = AXIS2_PLACEMENT_3D ( 'NONE', #92, #41, #226 ) ;
#172 = CIRCLE ( 'NONE', #180, 1.193499999999994898 ) ;
#173 = FACE_OUTER_BOUND ( 'NONE', #129, .T. ) ;
#174 = ORIENTED_EDGE ( 'NONE', *, *, #277, .T. ) ;
#175 = AXIS2_PLACEMENT_3D ( 'NONE', #187, #69, #157 ) ;
#176 = DIRECTION ( 'NONE',  ( -3.491481338843133355E-15, 1.224646799147353207E-16, -1.000000000000000000 ) ) ;
#177 = CARTESIAN_POINT ( 'NONE',  ( -3.189388773993321848E-31, 1.118686991064255380E-32, -9.134772506188142774E-17 ) ) ;
#178 = PLANE ( 'NONE',  #262 ) ;
#179 = DIRECTION ( 'NONE',  ( 4.275831445896958607E-31, 1.000000000000000000, 1.224646799147353207E-16 ) ) ;
#180 = AXIS2_PLACEMENT_3D ( 'NONE', #73, #94, #116 ) ;
#181 = DIRECTION ( 'NONE',  ( 4.841047199967941791E-31, 1.000000000000000000, 1.362633647866162855E-16 ) ) ;
#182 = CARTESIAN_POINT ( 'NONE',  ( -1.892735826383161356E-31, 1.049162432702589243, -5.421010862427522170E-17 ) ) ;
#183 = DATE_AND_TIME ( #75, #120 ) ;
#184 = COORDINATED_UNIVERSAL_TIME_OFFSET ( 1, 0, .AHEAD. ) ;
#185 = CLOSED_SHELL ( 'NONE', ( #76, #212, #87, #26, #253, #47, #139, #288 ) ) ;
#186 = AXIS2_PLACEMENT_3D ( 'NONE', #123, #17, #181 ) ;
#187 = CARTESIAN_POINT ( 'NONE',  ( 3.584309283006850024E-14, -1.257206458976207263E-15, 10.26586979896181973 ) ) ;
#188 = PERSON_AND_ORGANIZATION ( #28, #78 ) ;
#189 = EDGE_CURVE ( 'NONE', #284, #284, #149, .T. ) ;
#190 = PRODUCT_DEFINITION_SHAPE ( 'NONE', 'NONE',  #193 ) ;
#191 = DATE_AND_TIME ( #285, #84 ) ;
#192 = CC_DESIGN_SECURITY_CLASSIFICATION ( #297, ( #290 ) ) ;
#193 = PRODUCT_DEFINITION ( 'UNKNOWN', '', #290, #269 ) ;
#194 = ORIENTED_EDGE ( 'NONE', *, *, #189, .F. ) ;
#195 = CARTESIAN_POINT ( 'NONE',  ( 0.0000000000000000000, 0.0000000000000000000, 0.0000000000000000000 ) ) ;
#196 = LOCAL_TIME ( 7, 45, 14.00000000000000000, #258 ) ;
#197 = ORIENTED_EDGE ( 'NONE', *, *, #163, .T. ) ;
#198 = DIRECTION ( 'NONE',  ( -4.841047199967941791E-31, -1.000000000000000000, -1.362633647866162855E-16 ) ) ;
#199 = FACE_BOUND ( 'NONE', #170, .T. ) ;
#200 = ORIENTED_EDGE ( 'NONE', *, *, #278, .T. ) ;
#201 = AXIS2_PLACEMENT_3D ( 'NONE', #195, #271, #10 ) ;
#202 = EDGE_CURVE ( 'NONE', #98, #98, #9, .T. ) ;
#203 = CARTESIAN_POINT ( 'NONE',  ( 0.0000000000000000000, 0.0000000000000000000, 0.0000000000000000000 ) ) ;
#204 = FACE_OUTER_BOUND ( 'NONE', #295, .T. ) ;
#205 = CARTESIAN_POINT ( 'NONE',  ( 3.491481338843133355E-14, 1.193499999999993566, 10.00000000000000000 ) ) ;
#206 = APPROVAL ( #52, 'UNSPECIFIED' ) ;
#207 = APPROVAL_DATE_TIME ( #25, #206 ) ;
#208 =( NAMED_UNIT ( * ) SI_UNIT ( $, .STERADIAN. ) SOLID_ANGLE_UNIT ( ) );
#209 = AXIS2_PLACEMENT_3D ( 'NONE', #48, #20, #117 ) ;
#210 = DIRECTION ( 'NONE',  ( 0.0000000000000000000, 1.000000000000000000, 0.0000000000000000000 ) ) ;
#211 = PERSON_AND_ORGANIZATION_ROLE ( 'creator' ) ;
#212 = ADVANCED_FACE ( 'NONE', ( #96, #70 ), #272, .T. ) ;
#213 = APPLICATION_CONTEXT ( 'configuration controlled 3d designs of mechanical parts and assemblies' ) ;
#214 = CARTESIAN_POINT ( 'NONE',  ( 1.745740669421566678E-13, 1.199999999999995515, 50.00000000000000000 ) ) ;
#215 = DIRECTION ( 'NONE',  ( 1.000000000000000000, 0.0000000000000000000, 0.0000000000000000000 ) ) ;
#216 = CC_DESIGN_PERSON_AND_ORGANIZATION_ASSIGNMENT ( #259, #27, ( #297 ) ) ;
#217 = AXIS2_PLACEMENT_3D ( 'NONE', #239, #169, #215 ) ;
#218 = ORIENTED_EDGE ( 'NONE', *, *, #53, .F. ) ;
#219 =( LENGTH_UNIT ( ) NAMED_UNIT ( * ) SI_UNIT ( .MILLI., .METRE. ) );
#220 = CYLINDRICAL_SURFACE ( 'NONE', #201, 1.039999999999999369 ) ;
#221 = DIRECTION ( 'NONE',  ( -3.491481338843133355E-15, 1.224646799147353207E-16, -1.000000000000000000 ) ) ;
#222 = AXIS2_PLACEMENT_3D ( 'NONE', #251, #155, #232 ) ;
#223 = ORIENTED_EDGE ( 'NONE', *, *, #189, .T. ) ;
#224 = EDGE_CURVE ( 'NONE', #55, #55, #7, .T. ) ;
#225 = CARTESIAN_POINT ( 'NONE',  ( 3.491481338843133355E-14, 8.949816503034576896E-33, 10.00000000000000000 ) ) ;
#226 = DIRECTION ( 'NONE',  ( 0.0000000000000000000, 1.000000000000000000, 0.0000000000000000000 ) ) ;
#227 = APPROVAL ( #142, 'UNSPECIFIED' ) ;
#228 = EDGE_LOOP ( 'NONE', ( #8 ) ) ;
#229 = CONICAL_SURFACE ( 'NONE', #256, 1.193499999999993566, 0.5235987755982925984 ) ;
#230 = DIRECTION ( 'NONE',  ( 0.0000000000000000000, -1.000000000000000000, 0.0000000000000000000 ) ) ;
#231 = DIRECTION ( 'NONE',  ( -3.491481338843133355E-15, 1.224646799147353207E-16, -1.000000000000000000 ) ) ;
#232 = DIRECTION ( 'NONE',  ( -4.275831445896958607E-31, -1.000000000000000000, -1.224646799147353207E-16 ) ) ;
#233 = AXIS2_PLACEMENT_3D ( 'NONE', #14, #296, #86 ) ;
#234 = VERTEX_POINT ( 'NONE', #274 ) ;
#235 = PERSON_AND_ORGANIZATION_ROLE ( 'design_supplier' ) ;
#236 = CALENDAR_DATE ( 2021, 30, 11 ) ;
#237 = APPROVAL_ROLE ( '' ) ;
#238 = CONICAL_SURFACE ( 'NONE', #74, 1.200000000000001732, 0.7853981633974453924 ) ;
#239 = CARTESIAN_POINT ( 'NONE',  ( 0.0000000000000000000, 0.0000000000000000000, 0.0000000000000000000 ) ) ;
#240 = DATE_AND_TIME ( #124, #196 ) ;
#241 = ORIENTED_EDGE ( 'NONE', *, *, #95, .T. ) ;
#242 = CIRCLE ( 'NONE', #186, 1.193499999999993566 ) ;
#243 = ORIENTED_EDGE ( 'NONE', *, *, #95, .F. ) ;
#244 = DIRECTION ( 'NONE',  ( 4.275831445896958607E-31, 1.000000000000000000, 1.224646799147353454E-16 ) ) ;
#245 = PLANE ( 'NONE',  #54 ) ;
#246 = APPROVAL_PERSON_ORGANIZATION ( #282, #91, #237 ) ;
#247 = ORIENTED_EDGE ( 'NONE', *, *, #202, .T. ) ;
#248 = EDGE_LOOP ( 'NONE', ( #265 ) ) ;
#249 = CARTESIAN_POINT ( 'NONE',  ( 7.954909718362227349E-14, -2.790206728507497088E-15, 22.78376696407607227 ) ) ;
#250 = AXIS2_PLACEMENT_3D ( 'NONE', #177, #111, #88 ) ;
#251 = CARTESIAN_POINT ( 'NONE',  ( 3.491481338843133355E-14, 8.949816503034576896E-33, 10.00000000000000000 ) ) ;
#252 = DIRECTION ( 'NONE',  ( -3.491481338843133355E-15, 1.224646799147353207E-16, -1.000000000000000000 ) ) ;
#253 = ADVANCED_FACE ( 'NONE', ( #140, #138 ), #51, .T. ) ;
#254 = CARTESIAN_POINT ( 'NONE',  ( 3.584309283006850024E-14, 1.039999999999997815, 10.26586979896181973 ) ) ;
#255 = APPLICATION_CONTEXT ( 'configuration controlled 3d designs of mechanical parts and assemblies' ) ;
#256 = AXIS2_PLACEMENT_3D ( 'NONE', #270, #293, #198 ) ;
#257 = APPROVAL_STATUS ( 'not_yet_approved' ) ;
#258 = COORDINATED_UNIVERSAL_TIME_OFFSET ( 1, 0, .AHEAD. ) ;
#259 = PERSON_AND_ORGANIZATION ( #28, #78 ) ;
#260 = CARTESIAN_POINT ( 'NONE',  ( 7.104220552055900573E-14, 1.070384493975579332, 20.34729635533384240 ) ) ;
#261 = COORDINATED_UNIVERSAL_TIME_OFFSET ( 1, 0, .AHEAD. ) ;
#262 = AXIS2_PLACEMENT_3D ( 'NONE', #279, #231, #300 ) ;
#263 = ORIENTED_EDGE ( 'NONE', *, *, #99, .T. ) ;
#264 = PERSON_AND_ORGANIZATION_ROLE ( 'creator' ) ;
#265 = ORIENTED_EDGE ( 'NONE', *, *, #277, .F. ) ;
#266 = AXIS2_PLACEMENT_3D ( 'NONE', #93, #221, #244 ) ;
#267 = FACE_OUTER_BOUND ( 'NONE', #35, .T. ) ;
#268 = EDGE_LOOP ( 'NONE', ( #194 ) ) ;
#269 = DESIGN_CONTEXT ( 'detailed design', #213, 'design' ) ;
#270 = CARTESIAN_POINT ( 'NONE',  ( 8.728703347107829444E-16, -3.061616997868381785E-17, 0.2499999999999998890 ) ) ;
#271 = DIRECTION ( 'NONE',  ( -3.491481338843133355E-15, 1.224646799147353207E-16, -1.000000000000000000 ) ) ;
#272 = CONICAL_SURFACE ( 'NONE', #175, 1.039999999999999147, 0.5235987755982935976 ) ;
#273 = FACE_BOUND ( 'NONE', #68, .T. ) ;
#274 = CARTESIAN_POINT ( 'NONE',  ( 6.982962677686266711E-14, 1.039999999999997593, 20.00000000000000000 ) ) ;
#275 = AXIS2_PLACEMENT_3D ( 'NONE', #158, #136, #102 ) ;
#276 = DIRECTION ( 'NONE',  ( -3.491481338843133355E-15, 1.224646799147353207E-16, -1.000000000000000000 ) ) ;
#277 = EDGE_CURVE ( 'NONE', #3, #3, #101, .T. ) ;
#278 = EDGE_CURVE ( 'NONE', #145, #145, #242, .T. ) ;
#279 = CARTESIAN_POINT ( 'NONE',  ( 1.745740669421566678E-13, 8.998558695971067645E-33, 50.00000000000000000 ) ) ;
#280 = CC_DESIGN_DATE_AND_TIME_ASSIGNMENT ( #183, #57, ( #193 ) ) ;
#281 = LOCAL_TIME ( 7, 45, 14.00000000000000000, #184 ) ;
#282 = PERSON_AND_ORGANIZATION ( #28, #78 ) ;
#283 = ADVANCED_FACE ( 'NONE', ( #45, #204 ), #114, .T. ) ;
#284 = VERTEX_POINT ( 'NONE', #166 ) ;
#285 = CALENDAR_DATE ( 2021, 30, 11 ) ;
#286 = PERSON_AND_ORGANIZATION ( #28, #78 ) ;
#287 = APPROVAL_PERSON_ORGANIZATION ( #32, #206, #103 ) ;
#288 = ADVANCED_FACE ( 'NONE', ( #137 ), #178, .F. ) ;
#289 = EDGE_LOOP ( 'NONE', ( #113 ) ) ;
#290 = PRODUCT_DEFINITION_FORMATION_WITH_SPECIFIED_SOURCE ( 'ANY', '', #165, .NOT_KNOWN. ) ;
#291 = DIRECTION ( 'NONE',  ( -3.491481338843133355E-15, 1.224646799147353207E-16, -1.000000000000000000 ) ) ;
#292 = DIRECTION ( 'NONE',  ( 3.491481338843133355E-15, -1.224646799147353207E-16, 1.000000000000000000 ) ) ;
#293 = DIRECTION ( 'NONE',  ( 3.491481338843133355E-15, -1.224646799147353207E-16, 1.000000000000000000 ) ) ;
#294 = CARTESIAN_POINT ( 'NONE',  ( 3.491481338843133355E-14, -1.224646799147353256E-15, 10.00000000000000000 ) ) ;
#295 = EDGE_LOOP ( 'NONE', ( #241 ) ) ;
#296 = DIRECTION ( 'NONE',  ( -3.491481338843133355E-15, 1.224646799147353207E-16, -1.000000000000000000 ) ) ;
#297 = SECURITY_CLASSIFICATION ( '', '', #1 ) ;
#298 = EDGE_LOOP ( 'NONE', ( #148 ) ) ;
#299 = DIRECTION ( 'NONE',  ( 4.275831445896959482E-31, 1.000000000000000000, 1.224646799147353207E-16 ) ) ;
#300 = DIRECTION ( 'NONE',  ( 4.275831445896958607E-31, 1.000000000000000000, 1.224646799147353207E-16 ) ) ;
#301 = VERTEX_POINT ( 'NONE', #19 ) ;
#302 = DIRECTION ( 'NONE',  ( -3.491481338843133355E-15, 1.224646799147353207E-16, -1.000000000000000000 ) ) ;
#303 = CC_DESIGN_PERSON_AND_ORGANIZATION_ASSIGNMENT ( #286, #4, ( #165 ) ) ;
ENDSEC;
END-ISO-10303-21;
