ISO-10303-21;
HEADER;
FILE_DESCRIPTION (( 'STEP AP203' ),
    '1' );
FILE_NAME ('962239.step',
    '2021-11-30T06:45:14',
    ( '' ),
    ( '' ),
    'SwSTEP 2.0',
    'SolidWorks 2019',
    '' );
FILE_SCHEMA (( 'CONFIG_CONTROL_DESIGN' ));
ENDSEC;

DATA;
#1 = CIRCLE ( 'NONE', #272, 1.223499999999994925 ) ;
#2 = ORIENTED_EDGE ( 'NONE', *, *, #280, .F. ) ;
#3 = EDGE_LOOP ( 'NONE', ( #134 ) ) ;
#4 = ORIENTED_EDGE ( 'NONE', *, *, #17, .T. ) ;
#5 = APPROVAL_DATE_TIME ( #221, #193 ) ;
#6 = CIRCLE ( 'NONE', #179, 1.069999999999998952 ) ;
#7 = APPROVAL_PERSON_ORGANIZATION ( #138, #193, #120 ) ;
#8 = CARTESIAN_POINT ( 'NONE',  ( 0.0000000000000000000, 0.0000000000000000000, 0.0000000000000000000 ) ) ;
#9 = PERSON_AND_ORGANIZATION ( #61, #76 ) ;
#10 = DIRECTION ( 'NONE',  ( 0.0000000000000000000, 1.000000000000000000, 0.0000000000000000000 ) ) ;
#11 = FACE_BOUND ( 'NONE', #199, .T. ) ;
#12 = ORIENTED_EDGE ( 'NONE', *, *, #84, .F. ) ;
#13 = DIRECTION ( 'NONE',  ( 4.275831445896958607E-31, 1.000000000000000000, 1.224646799147353207E-16 ) ) ;
#14 = FACE_OUTER_BOUND ( 'NONE', #246, .T. ) ;
#15 = DIRECTION ( 'NONE',  ( 3.491481338843133355E-15, -1.224646799147353207E-16, 1.000000000000000000 ) ) ;
#16 = DIRECTION ( 'NONE',  ( 4.722345593103177333E-31, 1.000000000000000000, 1.329222115838385835E-16 ) ) ;
#17 = EDGE_CURVE ( 'NONE', #188, #188, #94, .T. ) ;
#18 = CARTESIAN_POINT ( 'NONE',  ( 8.728703347107829444E-16, -3.061616997868381785E-17, 0.2499999999999998890 ) ) ;
#19 = CC_DESIGN_DATE_AND_TIME_ASSIGNMENT ( #219, #185, ( #136 ) ) ;
#20 = TOROIDAL_SURFACE ( 'NONE', #135, 3.070000000000000284, 2.000000000000000000 ) ;
#21 = AXIS2_PLACEMENT_3D ( 'NONE', #139, #226, #141 ) ;
#22 = DIRECTION ( 'NONE',  ( -3.491481338843133355E-15, 1.224646799147353207E-16, -1.000000000000000000 ) ) ;
#23 = DIRECTION ( 'NONE',  ( 1.000000000000000000, 0.0000000000000000000, 0.0000000000000000000 ) ) ;
#24 = PRODUCT ( '962239', '962239', '', ( #26 ) ) ;
#25 = DATE_TIME_ROLE ( 'creation_date' ) ;
#26 = MECHANICAL_CONTEXT ( 'NONE', #101, 'mechanical' ) ;
#27 = CC_DESIGN_APPROVAL ( #211, ( #162 ) ) ;
#28 =( LENGTH_UNIT ( ) NAMED_UNIT ( * ) SI_UNIT ( .MILLI., .METRE. ) );
#29 = EDGE_CURVE ( 'NONE', #203, #203, #192, .T. ) ;
#30 = AXIS2_PLACEMENT_3D ( 'NONE', #275, #227, #237 ) ;
#31 = ORIENTED_EDGE ( 'NONE', *, *, #280, .T. ) ;
#32 = PRODUCT_DEFINITION_FORMATION_WITH_SPECIFIED_SOURCE ( 'ANY', '', #24, .NOT_KNOWN. ) ;
#33 = ORIENTED_EDGE ( 'NONE', *, *, #84, .T. ) ;
#34 = EDGE_LOOP ( 'NONE', ( #243 ) ) ;
#35 = APPROVAL_ROLE ( '' ) ;
#36 = ORIENTED_EDGE ( 'NONE', *, *, #284, .T. ) ;
#37 = CONICAL_SURFACE ( 'NONE', #267, 1.069999999999998952, 0.5235987755982941527 ) ;
#38 = DIRECTION ( 'NONE',  ( -4.275831445896958607E-31, -1.000000000000000000, -1.224646799147353207E-16 ) ) ;
#39 = COORDINATED_UNIVERSAL_TIME_OFFSET ( 1, 0, .AHEAD. ) ;
#40 = PLANE ( 'NONE',  #244 ) ;
#41 = DIRECTION ( 'NONE',  ( 0.0000000000000000000, 1.000000000000000000, 0.0000000000000000000 ) ) ;
#42 = CYLINDRICAL_SURFACE ( 'NONE', #153, 1.069999999999999396 ) ;
#43 = CARTESIAN_POINT ( 'NONE',  ( 6.982962677686266711E-14, -2.602085213965210642E-15, 20.00000000000000000 ) ) ;
#44 = CLOSED_SHELL ( 'NONE', ( #295, #223, #190, #56, #47, #133, #172, #215 ) ) ;
#45 = CC_DESIGN_APPROVAL ( #99, ( #32 ) ) ;
#46 = CARTESIAN_POINT ( 'NONE',  ( 8.728703347107835360E-16, 1.223499999999993593, 0.2500000000000000555 ) ) ;
#47 = ADVANCED_FACE ( 'NONE', ( #173, #142 ), #164, .T. ) ;
#48 = DIRECTION ( 'NONE',  ( -3.491481338843133355E-15, 1.224646799147353207E-16, -1.000000000000000000 ) ) ;
#49 = DIRECTION ( 'NONE',  ( 4.275831445896958607E-31, 1.000000000000000000, 1.224646799147353454E-16 ) ) ;
#50 = APPROVAL_STATUS ( 'not_yet_approved' ) ;
#51 = DIRECTION ( 'NONE',  ( -3.491481338843133355E-15, 1.224646799147353207E-16, -1.000000000000000000 ) ) ;
#52 =( NAMED_UNIT ( * ) PLANE_ANGLE_UNIT ( ) SI_UNIT ( $, .RADIAN. ) );
#53 = DATE_AND_TIME ( #261, #72 ) ;
#54 = CALENDAR_DATE ( 2021, 30, 11 ) ;
#55 = APPROVAL_ROLE ( '' ) ;
#56 = ADVANCED_FACE ( 'NONE', ( #118, #235 ), #20, .F. ) ;
#57 = ORIENTED_EDGE ( 'NONE', *, *, #78, .T. ) ;
#58 = AXIS2_PLACEMENT_3D ( 'NONE', #289, #233, #146 ) ;
#59 = ORIENTED_EDGE ( 'NONE', *, *, #197, .T. ) ;
#60 = EDGE_LOOP ( 'NONE', ( #57 ) ) ;
#61 = PERSON ( 'UNSPECIFIED', 'UNSPECIFIED', 'UNSPECIFIED', ('UNSPECIFIED'), ('UNSPECIFIED'), ('UNSPECIFIED') ) ;
#62 = FACE_OUTER_BOUND ( 'NONE', #166, .T. ) ;
#63 = CIRCLE ( 'NONE', #114, 1.200000000000001732 ) ;
#64 = LOCAL_TIME ( 7, 45, 14.00000000000000000, #132 ) ;
#65 = APPROVAL_DATE_TIME ( #109, #99 ) ;
#66 = FACE_OUTER_BOUND ( 'NONE', #247, .T. ) ;
#67 = SHAPE_DEFINITION_REPRESENTATION ( #228, #79 ) ;
#68 = CARTESIAN_POINT ( 'NONE',  ( 6.982962677686266711E-14, -2.449293598294706513E-15, 20.00000000000000000 ) ) ;
#69 = DIRECTION ( 'NONE',  ( 0.0000000000000000000, 1.000000000000000000, 0.0000000000000000000 ) ) ;
#70 = DIRECTION ( 'NONE',  ( -3.491481338843133355E-15, 1.224646799147353207E-16, -1.000000000000000000 ) ) ;
#71 = EDGE_LOOP ( 'NONE', ( #2 ) ) ;
#72 = LOCAL_TIME ( 7, 45, 14.00000000000000000, #241 ) ;
#73 = CARTESIAN_POINT ( 'NONE',  ( 0.0000000000000000000, 0.0000000000000000000, 0.0000000000000000000 ) ) ;
#74 = DIRECTION ( 'NONE',  ( 4.275831445896958607E-31, 1.000000000000000000, 1.224646799147353207E-16 ) ) ;
#75 = PERSON_AND_ORGANIZATION_ROLE ( 'design_owner' ) ;
#76 = ORGANIZATION ( 'UNSPECIFIED', 'UNSPECIFIED', '' ) ;
#77 = APPROVAL_STATUS ( 'not_yet_approved' ) ;
#78 = EDGE_CURVE ( 'NONE', #255, #255, #238, .T. ) ;
#79 = ADVANCED_BREP_SHAPE_REPRESENTATION ( '962239', ( #195, #89, #288 ), #129 ) ;
#80 = AXIS2_PLACEMENT_3D ( 'NONE', #73, #48, #49 ) ;
#81 = ORIENTED_EDGE ( 'NONE', *, *, #78, .F. ) ;
#82 = CALENDAR_DATE ( 2021, 30, 11 ) ;
#83 = PERSON_AND_ORGANIZATION_ROLE ( 'creator' ) ;
#84 = EDGE_CURVE ( 'NONE', #117, #117, #6, .T. ) ;
#85 = CARTESIAN_POINT ( 'NONE',  ( 0.0000000000000000000, 0.0000000000000000000, 0.0000000000000000000 ) ) ;
#86 = CARTESIAN_POINT ( 'NONE',  ( 7.895506194440679275E-14, 1.499999999999994005, 22.61362850948753689 ) ) ;
#87 = PERSON_AND_ORGANIZATION_ROLE ( 'classification_officer' ) ;
#88 = CARTESIAN_POINT ( 'NONE',  ( 3.491481338843133355E-14, -1.224646799147353256E-15, 10.00000000000000000 ) ) ;
#89 = MANIFOLD_SOLID_BREP ( 'Corps-Déplacer/Copier1[2]', #122 ) ;
#90 = DIRECTION ( 'NONE',  ( -3.491481338843133355E-15, 1.224646799147353207E-16, -1.000000000000000000 ) ) ;
#91 = FACE_OUTER_BOUND ( 'NONE', #3, .T. ) ;
#92 = FACE_BOUND ( 'NONE', #218, .T. ) ;
#93 = CYLINDRICAL_SURFACE ( 'NONE', #80, 1.499999999999999112 ) ;
#94 = CIRCLE ( 'NONE', #279, 1.500000000000001554 ) ;
#95 = CARTESIAN_POINT ( 'NONE',  ( 1.735266225405037467E-13, -6.086494591762345225E-15, 49.70000000000000284 ) ) ;
#96 = CALENDAR_DATE ( 2021, 30, 11 ) ;
#97 = PERSON_AND_ORGANIZATION ( #61, #76 ) ;
#98 = CIRCLE ( 'NONE', #198, 1.499999999999996669 ) ;
#99 = APPROVAL ( #50, 'UNSPECIFIED' ) ;
#100 = AXIS2_PLACEMENT_3D ( 'NONE', #68, #183, #10 ) ;
#101 = APPLICATION_CONTEXT ( 'configuration controlled 3d designs of mechanical parts and assemblies' ) ;
#102 = ORIENTED_EDGE ( 'NONE', *, *, #29, .T. ) ;
#103 = EDGE_LOOP ( 'NONE', ( #245 ) ) ;
#104 = AXIS2_PLACEMENT_3D ( 'NONE', #18, #144, #254 ) ;
#105 = EDGE_CURVE ( 'NONE', #287, #287, #98, .T. ) ;
#106 = SECURITY_CLASSIFICATION_LEVEL ( 'unclassified' ) ;
#107 = DIRECTION ( 'NONE',  ( 4.275831445896958607E-31, 1.000000000000000000, 1.224646799147353454E-16 ) ) ;
#108 = EDGE_LOOP ( 'NONE', ( #12 ) ) ;
#109 = DATE_AND_TIME ( #224, #303 ) ;
#110 = CARTESIAN_POINT ( 'NONE',  ( 3.491481338843133355E-14, 9.174780470433858548E-33, 10.00000000000000000 ) ) ;
#111 = PERSON_AND_ORGANIZATION ( #61, #76 ) ;
#112 = FACE_OUTER_BOUND ( 'NONE', #159, .T. ) ;
#113 = DIRECTION ( 'NONE',  ( -3.491481338843133355E-15, 1.224646799147353207E-16, -1.000000000000000000 ) ) ;
#114 = AXIS2_PLACEMENT_3D ( 'NONE', #232, #236, #69 ) ;
#115 = CARTESIAN_POINT ( 'NONE',  ( 3.491481338843133355E-14, 9.174780470433858548E-33, 10.00000000000000000 ) ) ;
#116 = ORIENTED_EDGE ( 'NONE', *, *, #29, .F. ) ;
#117 = VERTEX_POINT ( 'NONE', #270 ) ;
#118 = FACE_OUTER_BOUND ( 'NONE', #71, .T. ) ;
#119 = FACE_OUTER_BOUND ( 'NONE', #249, .T. ) ;
#120 = APPROVAL_ROLE ( '' ) ;
#121 = ADVANCED_FACE ( 'NONE', ( #119 ), #257, .F. ) ;
#122 = CLOSED_SHELL ( 'NONE', ( #121, #149, #248, #240 ) ) ;
#123 = COORDINATED_UNIVERSAL_TIME_OFFSET ( 1, 0, .AHEAD. ) ;
#124 = VERTEX_POINT ( 'NONE', #125 ) ;
#125 = CARTESIAN_POINT ( 'NONE',  ( 3.491481338843133355E-14, 1.223499999999993593, 10.00000000000000000 ) ) ;
#126 = AXIS2_PLACEMENT_3D ( 'NONE', #212, #22, #251 ) ;
#127 = VERTEX_POINT ( 'NONE', #282 ) ;
#128 = CC_DESIGN_PERSON_AND_ORGANIZATION_ASSIGNMENT ( #9, #83, ( #32 ) ) ;
#129 =( GEOMETRIC_REPRESENTATION_CONTEXT ( 3 ) GLOBAL_UNCERTAINTY_ASSIGNED_CONTEXT ( ( #253 ) ) GLOBAL_UNIT_ASSIGNED_CONTEXT ( ( #28, #52, #300 ) ) REPRESENTATION_CONTEXT ( 'NONE', 'WORKASPACE' ) );
#130 = ORIENTED_EDGE ( 'NONE', *, *, #17, .F. ) ;
#131 = EDGE_LOOP ( 'NONE', ( #181 ) ) ;
#132 = COORDINATED_UNIVERSAL_TIME_OFFSET ( 1, 0, .AHEAD. ) ;
#133 = ADVANCED_FACE ( 'NONE', ( #14, #294 ), #93, .T. ) ;
#134 = ORIENTED_EDGE ( 'NONE', *, *, #268, .F. ) ;
#135 = AXIS2_PLACEMENT_3D ( 'NONE', #43, #281, #74 ) ;
#136 = SECURITY_CLASSIFICATION ( '', '', #106 ) ;
#137 = EDGE_CURVE ( 'NONE', #184, #184, #63, .T. ) ;
#138 = PERSON_AND_ORGANIZATION ( #61, #76 ) ;
#139 = CARTESIAN_POINT ( 'NONE',  ( 3.491481338843133355E-14, -1.224646799147353256E-15, 10.00000000000000000 ) ) ;
#140 = PERSON_AND_ORGANIZATION_ROLE ( 'design_supplier' ) ;
#141 = DIRECTION ( 'NONE',  ( 0.0000000000000000000, 1.000000000000000000, 0.0000000000000000000 ) ) ;
#142 = FACE_OUTER_BOUND ( 'NONE', #34, .T. ) ;
#143 = DIRECTION ( 'NONE',  ( 4.275831445896958607E-31, 1.000000000000000000, 1.224646799147353207E-16 ) ) ;
#144 = DIRECTION ( 'NONE',  ( 3.491481338843133355E-15, -1.224646799147353207E-16, 1.000000000000000000 ) ) ;
#145 = AXIS2_PLACEMENT_3D ( 'NONE', #115, #163, #38 ) ;
#146 = DIRECTION ( 'NONE',  ( 4.275831445896958607E-31, 1.000000000000000000, 1.224646799147353207E-16 ) ) ;
#147 = FACE_BOUND ( 'NONE', #103, .T. ) ;
#148 = EDGE_LOOP ( 'NONE', ( #130 ) ) ;
#149 = ADVANCED_FACE ( 'NONE', ( #92, #169 ), #157, .T. ) ;
#150 = APPLICATION_CONTEXT ( 'configuration controlled 3d designs of mechanical parts and assemblies' ) ;
#151 = CARTESIAN_POINT ( 'NONE',  ( 3.584309283006850024E-14, -1.257206458976207263E-15, 10.26586979896181973 ) ) ;
#152 = DIRECTION ( 'NONE',  ( 0.0000000000000000000, 0.0000000000000000000, 1.000000000000000000 ) ) ;
#153 = AXIS2_PLACEMENT_3D ( 'NONE', #85, #70, #143 ) ;
#154 = CARTESIAN_POINT ( 'NONE',  ( 3.491481338843133355E-14, 1.223499999999993593, 10.00000000000000000 ) ) ;
#155 = APPROVAL_DATE_TIME ( #178, #211 ) ;
#156 = PERSON_AND_ORGANIZATION_ROLE ( 'creator' ) ;
#157 = CONICAL_SURFACE ( 'NONE', #104, 1.223499999999993593, 0.5235987755982924874 ) ;
#158 = CC_DESIGN_SECURITY_CLASSIFICATION ( #136, ( #32 ) ) ;
#159 = EDGE_LOOP ( 'NONE', ( #81 ) ) ;
#160 = ORIENTED_EDGE ( 'NONE', *, *, #284, .F. ) ;
#161 = PERSON_AND_ORGANIZATION ( #61, #76 ) ;
#162 = PRODUCT_DEFINITION ( 'UNKNOWN', '', #32, #277 ) ;
#163 = DIRECTION ( 'NONE',  ( 3.491481338843133355E-15, -1.224646799147353207E-16, 1.000000000000000000 ) ) ;
#164 = CONICAL_SURFACE ( 'NONE', #222, 1.499999999999996669, 0.1745329251994257314 ) ;
#165 = APPROVAL_PERSON_ORGANIZATION ( #258, #99, #35 ) ;
#166 = EDGE_LOOP ( 'NONE', ( #31 ) ) ;
#167 = DIRECTION ( 'NONE',  ( -3.491481338843133355E-15, 1.224646799147353207E-16, -1.000000000000000000 ) ) ;
#168 = DIRECTION ( 'NONE',  ( -3.491481338843133355E-15, 1.224646799147353207E-16, -1.000000000000000000 ) ) ;
#169 = FACE_OUTER_BOUND ( 'NONE', #60, .T. ) ;
#170 = CARTESIAN_POINT ( 'NONE',  ( 7.104220552055901835E-14, 1.100384493975579803, 20.34729635533384595 ) ) ;
#171 = DIRECTION ( 'NONE',  ( 0.0000000000000000000, 1.000000000000000000, 0.0000000000000000000 ) ) ;
#172 = ADVANCED_FACE ( 'NONE', ( #278, #147 ), #256, .T. ) ;
#173 = FACE_BOUND ( 'NONE', #191, .T. ) ;
#174 = DIRECTION ( 'NONE',  ( 0.0000000000000000000, -1.000000000000000000, 0.0000000000000000000 ) ) ;
#175 = CARTESIAN_POINT ( 'NONE',  ( -3.785471652766321837E-31, 1.079162432702589269, -1.084202172485504434E-16 ) ) ;
#176 = CIRCLE ( 'NONE', #21, 1.223499999999994925 ) ;
#177 = PERSON_AND_ORGANIZATION ( #61, #76 ) ;
#178 = DATE_AND_TIME ( #54, #180 ) ;
#179 = AXIS2_PLACEMENT_3D ( 'NONE', #151, #208, #41 ) ;
#180 = LOCAL_TIME ( 7, 45, 14.00000000000000000, #123 ) ;
#181 = ORIENTED_EDGE ( 'NONE', *, *, #137, .F. ) ;
#182 = CC_DESIGN_PERSON_AND_ORGANIZATION_ASSIGNMENT ( #161, #140, ( #32 ) ) ;
#183 = DIRECTION ( 'NONE',  ( -3.491481338843133355E-15, 1.224646799147353207E-16, -1.000000000000000000 ) ) ;
#184 = VERTEX_POINT ( 'NONE', #262 ) ;
#185 = DATE_TIME_ROLE ( 'classification_date' ) ;
#186 = DIRECTION ( 'NONE',  ( -3.491481338843133355E-15, 1.224646799147353207E-16, -1.000000000000000000 ) ) ;
#187 = DIRECTION ( 'NONE',  ( -3.491481338843133355E-15, 1.224646799147353207E-16, -1.000000000000000000 ) ) ;
#188 = VERTEX_POINT ( 'NONE', #276 ) ;
#189 = CARTESIAN_POINT ( 'NONE',  ( 7.104220552055901835E-14, -2.491825135286219831E-15, 20.34729635533384595 ) ) ;
#190 = ADVANCED_FACE ( 'NONE', ( #252, #62 ), #42, .T. ) ;
#191 = EDGE_LOOP ( 'NONE', ( #116 ) ) ;
#192 = CIRCLE ( 'NONE', #264, 1.100384493975582245 ) ;
#193 = APPROVAL ( #201, 'UNSPECIFIED' ) ;
#194 = EDGE_LOOP ( 'NONE', ( #220 ) ) ;
#195 = MANIFOLD_SOLID_BREP ( 'Corps-Déplacer/Copier1[1]', #44 ) ;
#196 = APPLICATION_PROTOCOL_DEFINITION ( 'international standard', 'config_control_design', 1994, #150 ) ;
#197 = EDGE_CURVE ( 'NONE', #299, #299, #285, .T. ) ;
#198 = AXIS2_PLACEMENT_3D ( 'NONE', #210, #187, #292 ) ;
#199 = EDGE_LOOP ( 'NONE', ( #33 ) ) ;
#200 = EDGE_LOOP ( 'NONE', ( #102 ) ) ;
#201 = APPROVAL_STATUS ( 'not_yet_approved' ) ;
#202 = PLANE ( 'NONE',  #145 ) ;
#203 = VERTEX_POINT ( 'NONE', #170 ) ;
#204 = FACE_OUTER_BOUND ( 'NONE', #194, .T. ) ;
#205 = CIRCLE ( 'NONE', #100, 1.070000000000000062 ) ;
#206 = DIRECTION ( 'NONE',  ( 0.0000000000000000000, 1.000000000000000000, 0.0000000000000000000 ) ) ;
#207 = CYLINDRICAL_SURFACE ( 'NONE', #213, 1.223499999999994259 ) ;
#208 = DIRECTION ( 'NONE',  ( -3.491481338843133355E-15, 1.224646799147353207E-16, -1.000000000000000000 ) ) ;
#209 = DIRECTION ( 'NONE',  ( -3.491481338843133355E-15, 1.224646799147353207E-16, -1.000000000000000000 ) ) ;
#210 = CARTESIAN_POINT ( 'NONE',  ( 7.895506194440679275E-14, -2.769370777125123962E-15, 22.61362850948753689 ) ) ;
#211 = APPROVAL ( #77, 'UNSPECIFIED' ) ;
#212 = CARTESIAN_POINT ( 'NONE',  ( 1.745740669421566678E-13, -6.123233995736766085E-15, 50.00000000000000000 ) ) ;
#213 = AXIS2_PLACEMENT_3D ( 'NONE', #8, #209, #107 ) ;
#214 = VERTEX_POINT ( 'NONE', #154 ) ;
#215 = ADVANCED_FACE ( 'NONE', ( #286 ), #40, .F. ) ;
#216 = EDGE_LOOP ( 'NONE', ( #160 ) ) ;
#217 = AXIS2_PLACEMENT_3D ( 'NONE', #290, #51, #16 ) ;
#218 = EDGE_LOOP ( 'NONE', ( #269 ) ) ;
#219 = DATE_AND_TIME ( #82, #64 ) ;
#220 = ORIENTED_EDGE ( 'NONE', *, *, #268, .T. ) ;
#221 = DATE_AND_TIME ( #96, #231 ) ;
#222 = AXIS2_PLACEMENT_3D ( 'NONE', #296, #259, #174 ) ;
#223 = ADVANCED_FACE ( 'NONE', ( #250, #11 ), #37, .T. ) ;
#224 = CALENDAR_DATE ( 2021, 30, 11 ) ;
#225 = DIRECTION ( 'NONE',  ( 0.0000000000000000000, 1.000000000000000000, 0.0000000000000000000 ) ) ;
#226 = DIRECTION ( 'NONE',  ( -3.491481338843133355E-15, 1.224646799147353207E-16, -1.000000000000000000 ) ) ;
#227 = DIRECTION ( 'NONE',  ( 3.491481338843133355E-15, -1.224646799147353207E-16, 1.000000000000000000 ) ) ;
#228 = PRODUCT_DEFINITION_SHAPE ( 'NONE', 'NONE',  #162 ) ;
#229 = DIRECTION ( 'NONE',  ( 0.0000000000000000000, 1.000000000000000000, 0.0000000000000000000 ) ) ;
#230 = AXIS2_PLACEMENT_3D ( 'NONE', #110, #15, #274 ) ;
#231 = LOCAL_TIME ( 7, 45, 14.00000000000000000, #39 ) ;
#232 = CARTESIAN_POINT ( 'NONE',  ( 1.745740669421566678E-13, -6.123233995736766085E-15, 50.00000000000000000 ) ) ;
#233 = DIRECTION ( 'NONE',  ( -3.491481338843133355E-15, 1.224646799147353207E-16, -1.000000000000000000 ) ) ;
#234 = CC_DESIGN_PERSON_AND_ORGANIZATION_ASSIGNMENT ( #97, #156, ( #162 ) ) ;
#235 = FACE_OUTER_BOUND ( 'NONE', #200, .T. ) ;
#236 = DIRECTION ( 'NONE',  ( -3.491481338843133355E-15, 1.224646799147353207E-16, -1.000000000000000000 ) ) ;
#237 = DIRECTION ( 'NONE',  ( -4.275831445896958607E-31, -1.000000000000000000, -1.224646799147353207E-16 ) ) ;
#238 = CIRCLE ( 'NONE', #217, 1.223499999999993593 ) ;
#239 = PERSON_AND_ORGANIZATION ( #61, #76 ) ;
#240 = ADVANCED_FACE ( 'NONE', ( #91 ), #202, .T. ) ;
#241 = COORDINATED_UNIVERSAL_TIME_OFFSET ( 1, 0, .AHEAD. ) ;
#242 = CC_DESIGN_PERSON_AND_ORGANIZATION_ASSIGNMENT ( #111, #87, ( #136 ) ) ;
#243 = ORIENTED_EDGE ( 'NONE', *, *, #105, .T. ) ;
#244 = AXIS2_PLACEMENT_3D ( 'NONE', #273, #168, #13 ) ;
#245 = ORIENTED_EDGE ( 'NONE', *, *, #137, .T. ) ;
#246 = EDGE_LOOP ( 'NONE', ( #283 ) ) ;
#247 = EDGE_LOOP ( 'NONE', ( #36 ) ) ;
#248 = ADVANCED_FACE ( 'NONE', ( #112, #204 ), #207, .T. ) ;
#249 = EDGE_LOOP ( 'NONE', ( #59 ) ) ;
#250 = FACE_OUTER_BOUND ( 'NONE', #216, .T. ) ;
#251 = DIRECTION ( 'NONE',  ( 0.0000000000000000000, 1.000000000000000000, 0.0000000000000000000 ) ) ;
#252 = FACE_OUTER_BOUND ( 'NONE', #108, .T. ) ;
#253 = UNCERTAINTY_MEASURE_WITH_UNIT (LENGTH_MEASURE( 1.000000000000000082E-05 ), #28, 'distance_accuracy_value', 'NONE');
#254 = DIRECTION ( 'NONE',  ( -4.722345593103177333E-31, -1.000000000000000000, -1.329222115838385835E-16 ) ) ;
#255 = VERTEX_POINT ( 'NONE', #46 ) ;
#256 = CONICAL_SURFACE ( 'NONE', #126, 1.200000000000001732, 0.7853981633974453924 ) ;
#257 = PLANE ( 'NONE',  #30 ) ;
#258 = PERSON_AND_ORGANIZATION ( #61, #76 ) ;
#259 = DIRECTION ( 'NONE',  ( 3.491481338843133355E-15, -1.224646799147353207E-16, 1.000000000000000000 ) ) ;
#260 = CARTESIAN_POINT ( 'NONE',  ( 0.0000000000000000000, 0.0000000000000000000, 0.0000000000000000000 ) ) ;
#261 = CALENDAR_DATE ( 2021, 30, 11 ) ;
#262 = CARTESIAN_POINT ( 'NONE',  ( 1.745740669421566678E-13, 1.199999999999995515, 50.00000000000000000 ) ) ;
#263 = PRODUCT_RELATED_PRODUCT_CATEGORY ( 'detail', '', ( #24 ) ) ;
#264 = AXIS2_PLACEMENT_3D ( 'NONE', #189, #113, #206 ) ;
#265 = CC_DESIGN_APPROVAL ( #193, ( #136 ) ) ;
#266 = EDGE_LOOP ( 'NONE', ( #4 ) ) ;
#267 = AXIS2_PLACEMENT_3D ( 'NONE', #293, #167, #229 ) ;
#268 = EDGE_CURVE ( 'NONE', #124, #124, #176, .T. ) ;
#269 = ORIENTED_EDGE ( 'NONE', *, *, #197, .F. ) ;
#270 = CARTESIAN_POINT ( 'NONE',  ( 3.584309283006850024E-14, 1.069999999999997620, 10.26586979896181973 ) ) ;
#271 = CC_DESIGN_PERSON_AND_ORGANIZATION_ASSIGNMENT ( #177, #75, ( #24 ) ) ;
#272 = AXIS2_PLACEMENT_3D ( 'NONE', #88, #186, #225 ) ;
#273 = CARTESIAN_POINT ( 'NONE',  ( 1.745740669421566678E-13, 8.998558695971067645E-33, 50.00000000000000000 ) ) ;
#274 = DIRECTION ( 'NONE',  ( -4.275831445896958607E-31, -1.000000000000000000, -1.224646799147353207E-16 ) ) ;
#275 = CARTESIAN_POINT ( 'NONE',  ( -4.199894158873356559E-31, 1.473124567844928375E-32, -1.202897495727400643E-16 ) ) ;
#276 = CARTESIAN_POINT ( 'NONE',  ( 1.735266225405037467E-13, 1.499999999999995559, 49.70000000000000284 ) ) ;
#277 = DESIGN_CONTEXT ( 'detailed design', #150, 'design' ) ;
#278 = FACE_OUTER_BOUND ( 'NONE', #148, .T. ) ;
#279 = AXIS2_PLACEMENT_3D ( 'NONE', #95, #90, #171 ) ;
#280 = EDGE_CURVE ( 'NONE', #127, #127, #205, .T. ) ;
#281 = DIRECTION ( 'NONE',  ( -3.491481338843133355E-15, 1.224646799147353207E-16, -1.000000000000000000 ) ) ;
#282 = CARTESIAN_POINT ( 'NONE',  ( 6.982962677686266711E-14, 1.069999999999997620, 20.00000000000000000 ) ) ;
#283 = ORIENTED_EDGE ( 'NONE', *, *, #105, .F. ) ;
#284 = EDGE_CURVE ( 'NONE', #214, #214, #1, .T. ) ;
#285 = CIRCLE ( 'NONE', #58, 1.079162432702589269 ) ;
#286 = FACE_OUTER_BOUND ( 'NONE', #131, .T. ) ;
#287 = VERTEX_POINT ( 'NONE', #86 ) ;
#288 = AXIS2_PLACEMENT_3D ( 'NONE', #260, #152, #23 ) ;
#289 = CARTESIAN_POINT ( 'NONE',  ( -8.399788317746713118E-31, 2.946249135689856749E-32, -2.405794991454801287E-16 ) ) ;
#290 = CARTESIAN_POINT ( 'NONE',  ( 8.728703347107829444E-16, -3.061616997868381785E-17, 0.2499999999999998890 ) ) ;
#291 = PLANE ( 'NONE',  #230 ) ;
#292 = DIRECTION ( 'NONE',  ( 0.0000000000000000000, 1.000000000000000000, 0.0000000000000000000 ) ) ;
#293 = CARTESIAN_POINT ( 'NONE',  ( 3.584309283006850024E-14, -1.257206458976207263E-15, 10.26586979896181973 ) ) ;
#294 = FACE_OUTER_BOUND ( 'NONE', #266, .T. ) ;
#295 = ADVANCED_FACE ( 'NONE', ( #66 ), #291, .F. ) ;
#296 = CARTESIAN_POINT ( 'NONE',  ( 7.895506194440679275E-14, -2.769370777125123962E-15, 22.61362850948753689 ) ) ;
#297 = COORDINATED_UNIVERSAL_TIME_OFFSET ( 1, 0, .AHEAD. ) ;
#298 = CC_DESIGN_DATE_AND_TIME_ASSIGNMENT ( #53, #25, ( #162 ) ) ;
#299 = VERTEX_POINT ( 'NONE', #175 ) ;
#300 =( NAMED_UNIT ( * ) SI_UNIT ( $, .STERADIAN. ) SOLID_ANGLE_UNIT ( ) );
#301 = APPROVAL_PERSON_ORGANIZATION ( #239, #211, #55 ) ;
#302 = APPLICATION_PROTOCOL_DEFINITION ( 'international standard', 'config_control_design', 1994, #101 ) ;
#303 = LOCAL_TIME ( 7, 45, 14.00000000000000000, #297 ) ;
ENDSEC;
END-ISO-10303-21;
