ISO-10303-21;
HEADER;
FILE_DESCRIPTION (( 'STEP AP203' ),
    '1' );
FILE_NAME ('962183.step',
    '2021-11-30T08:32:50',
    ( '' ),
    ( '' ),
    'SwSTEP 2.0',
    'SolidWorks 2019',
    '' );
FILE_SCHEMA (( 'CONFIG_CONTROL_DESIGN' ));
ENDSEC;

DATA;
#1 = CARTESIAN_POINT ( 'NONE',  ( 1.745740669421566678E-13, -6.123233995736766085E-15, 50.00000000000000000 ) ) ;
#2 = AXIS2_PLACEMENT_3D ( 'NONE', #95, #140, #234 ) ;
#3 = EDGE_CURVE ( 'NONE', #21, #21, #124, .T. ) ;
#4 = CIRCLE ( 'NONE', #279, 1.200000000000001732 ) ;
#5 = DIRECTION ( 'NONE',  ( 3.491481338843133355E-15, -1.224646799147353207E-16, 1.000000000000000000 ) ) ;
#6 = CC_DESIGN_PERSON_AND_ORGANIZATION_ASSIGNMENT ( #126, #182, ( #285 ) ) ;
#7 = PERSON_AND_ORGANIZATION ( #192, #301 ) ;
#8 = ORIENTED_EDGE ( 'NONE', *, *, #89, .T. ) ;
#9 = CALENDAR_DATE ( 2021, 30, 11 ) ;
#10 = CIRCLE ( 'NONE', #2, 0.7641624327025948737 ) ;
#11 = APPROVAL_PERSON_ORGANIZATION ( #197, #110, #187 ) ;
#12 = CARTESIAN_POINT ( 'NONE',  ( 2.793185071074506684E-14, -9.797174393178825657E-16, 8.000000000000000000 ) ) ;
#13 = VERTEX_POINT ( 'NONE', #115 ) ;
#14 = APPROVAL_ROLE ( '' ) ;
#15 = DIRECTION ( 'NONE',  ( -4.275831445896958607E-31, -1.000000000000000000, -1.224646799147353207E-16 ) ) ;
#16 = VERTEX_POINT ( 'NONE', #117 ) ;
#17 = ADVANCED_FACE ( 'NONE', ( #190, #171 ), #258, .T. ) ;
#18 = EDGE_LOOP ( 'NONE', ( #212 ) ) ;
#19 = FACE_BOUND ( 'NONE', #109, .T. ) ;
#20 = ORIENTED_EDGE ( 'NONE', *, *, #183, .F. ) ;
#21 = VERTEX_POINT ( 'NONE', #302 ) ;
#22 = ADVANCED_FACE ( 'NONE', ( #47, #69 ), #65, .T. ) ;
#23 = VERTEX_POINT ( 'NONE', #300 ) ;
#24 = AXIS2_PLACEMENT_3D ( 'NONE', #232, #275, #195 ) ;
#25 = CARTESIAN_POINT ( 'NONE',  ( 5.935518276033326704E-14, -2.081899558550500280E-15, 17.00000000000000000 ) ) ;
#26 = PERSON_AND_ORGANIZATION ( #192, #301 ) ;
#27 = ADVANCED_FACE ( 'NONE', ( #19, #282 ), #152, .T. ) ;
#28 = CARTESIAN_POINT ( 'NONE',  ( 2.793185071074506684E-14, -9.797174393178825657E-16, 8.000000000000000000 ) ) ;
#29 = FACE_OUTER_BOUND ( 'NONE', #167, .T. ) ;
#30 = AXIS2_PLACEMENT_3D ( 'NONE', #242, #127, #103 ) ;
#31 = EDGE_LOOP ( 'NONE', ( #276 ) ) ;
#32 = DIRECTION ( 'NONE',  ( 0.0000000000000000000, 1.000000000000000000, 0.0000000000000000000 ) ) ;
#33 = APPROVAL ( #37, 'UNSPECIFIED' ) ;
#34 = EDGE_LOOP ( 'NONE', ( #8 ) ) ;
#35 = PLANE ( 'NONE',  #221 ) ;
#36 = APPLICATION_CONTEXT ( 'configuration controlled 3d designs of mechanical parts and assemblies' ) ;
#37 = APPROVAL_STATUS ( 'not_yet_approved' ) ;
#38 = APPROVAL_PERSON_ORGANIZATION ( #146, #33, #14 ) ;
#39 = CARTESIAN_POINT ( 'NONE',  ( 8.728703347107835360E-16, 0.9084999999999991971, 0.2500000000000000555 ) ) ;
#40 = PERSON_AND_ORGANIZATION ( #192, #301 ) ;
#41 = PLANE ( 'NONE',  #193 ) ;
#42 = AXIS2_PLACEMENT_3D ( 'NONE', #130, #5, #202 ) ;
#43 = EDGE_LOOP ( 'NONE', ( #260 ) ) ;
#44 = DATE_TIME_ROLE ( 'creation_date' ) ;
#45 = ORIENTED_EDGE ( 'NONE', *, *, #84, .F. ) ;
#46 = ADVANCED_BREP_SHAPE_REPRESENTATION ( '962183', ( #251, #250, #210 ), #113 ) ;
#47 = FACE_BOUND ( 'NONE', #230, .T. ) ;
#48 = AXIS2_PLACEMENT_3D ( 'NONE', #270, #249, #32 ) ;
#49 = APPLICATION_PROTOCOL_DEFINITION ( 'international standard', 'config_control_design', 1994, #36 ) ;
#50 = LOCAL_TIME ( 9, 32, 50.00000000000000000, #55 ) ;
#51 = CARTESIAN_POINT ( 'NONE',  ( 6.056776150402963091E-14, -2.124431095542013992E-15, 17.34729635533384595 ) ) ;
#52 = DIRECTION ( 'NONE',  ( 0.0000000000000000000, 1.000000000000000000, 0.0000000000000000000 ) ) ;
#53 = CARTESIAN_POINT ( 'NONE',  ( 0.0000000000000000000, 0.0000000000000000000, 0.0000000000000000000 ) ) ;
#54 = DIRECTION ( 'NONE',  ( -3.491481338843133355E-15, 1.224646799147353207E-16, -1.000000000000000000 ) ) ;
#55 = COORDINATED_UNIVERSAL_TIME_OFFSET ( 1, 0, .AHEAD. ) ;
#56 = CLOSED_SHELL ( 'NONE', ( #131, #219, #17, #125 ) ) ;
#57 = VERTEX_POINT ( 'NONE', #90 ) ;
#58 = AXIS2_PLACEMENT_3D ( 'NONE', #174, #261, #216 ) ;
#59 = APPROVAL_STATUS ( 'not_yet_approved' ) ;
#60 = ADVANCED_FACE ( 'NONE', ( #253 ), #41, .F. ) ;
#61 = FACE_OUTER_BOUND ( 'NONE', #43, .T. ) ;
#62 = FACE_BOUND ( 'NONE', #161, .T. ) ;
#63 = DIRECTION ( 'NONE',  ( 4.239801748788635499E-31, 1.000000000000000000, 1.193398098498079758E-16 ) ) ;
#64 = EDGE_LOOP ( 'NONE', ( #93 ) ) ;
#65 = CONICAL_SURFACE ( 'NONE', #247, 1.499999999999996669, 0.1745329251994263697 ) ;
#66 = CONICAL_SURFACE ( 'NONE', #176, 1.200000000000001732, 0.7853981633974453924 ) ;
#67 = COORDINATED_UNIVERSAL_TIME_OFFSET ( 1, 0, .AHEAD. ) ;
#68 = APPROVAL_DATE_TIME ( #91, #33 ) ;
#69 = FACE_OUTER_BOUND ( 'NONE', #121, .T. ) ;
#70 = CC_DESIGN_PERSON_AND_ORGANIZATION_ASSIGNMENT ( #26, #218, ( #285 ) ) ;
#71 = LOCAL_TIME ( 9, 32, 50.00000000000000000, #67 ) ;
#72 = DIRECTION ( 'NONE',  ( 0.0000000000000000000, 1.000000000000000000, 0.0000000000000000000 ) ) ;
#73 = DIRECTION ( 'NONE',  ( -3.491481338843133355E-15, 1.224646799147353207E-16, -1.000000000000000000 ) ) ;
#74 = PERSON_AND_ORGANIZATION_ROLE ( 'classification_officer' ) ;
#75 = PERSON_AND_ORGANIZATION ( #192, #301 ) ;
#76 = CYLINDRICAL_SURFACE ( 'NONE', #58, 0.8050000000000001599 ) ;
#77 = CIRCLE ( 'NONE', #284, 0.9085000000000000853 ) ;
#78 = LOCAL_TIME ( 9, 32, 50.00000000000000000, #299 ) ;
#79 = MECHANICAL_CONTEXT ( 'NONE', #303, 'mechanical' ) ;
#80 = DIRECTION ( 'NONE',  ( 0.0000000000000000000, 1.000000000000000000, 0.0000000000000000000 ) ) ;
#81 = APPROVAL_PERSON_ORGANIZATION ( #7, #241, #271 ) ;
#82 = DIRECTION ( 'NONE',  ( -4.275831445896958607E-31, -1.000000000000000000, -1.224646799147353207E-16 ) ) ;
#83 = CARTESIAN_POINT ( 'NONE',  ( 8.728703347107831416E-16, -3.061616997868382402E-17, 0.2499999999999999445 ) ) ;
#84 = EDGE_CURVE ( 'NONE', #23, #23, #10, .T. ) ;
#85 = EDGE_LOOP ( 'NONE', ( #118 ) ) ;
#86 = DIRECTION ( 'NONE',  ( -3.491481338843133355E-15, 1.224646799147353207E-16, -1.000000000000000000 ) ) ;
#87 = CC_DESIGN_APPROVAL ( #110, ( #92 ) ) ;
#88 = ORIENTED_EDGE ( 'NONE', *, *, #194, .T. ) ;
#89 = EDGE_CURVE ( 'NONE', #105, #105, #228, .T. ) ;
#90 = CARTESIAN_POINT ( 'NONE',  ( 7.372792920761422339E-14, 1.499999999999994005, 21.11651819168628919 ) ) ;
#91 = DATE_AND_TIME ( #293, #71 ) ;
#92 = SECURITY_CLASSIFICATION ( '', '', #156 ) ;
#93 = ORIENTED_EDGE ( 'NONE', *, *, #142, .T. ) ;
#94 = ADVANCED_FACE ( 'NONE', ( #213, #297 ), #99, .T. ) ;
#95 = CARTESIAN_POINT ( 'NONE',  ( -1.374693933139712197E-31, 4.821777239069103992E-33, -3.937279909951353310E-17 ) ) ;
#96 = CARTESIAN_POINT ( 'NONE',  ( 2.855775899875449572E-14, -1.001671346759487905E-15, 8.179267258583378108 ) ) ;
#97 = DIRECTION ( 'NONE',  ( 1.000000000000000000, 0.0000000000000000000, 0.0000000000000000000 ) ) ;
#98 = CALENDAR_DATE ( 2021, 30, 11 ) ;
#99 = CYLINDRICAL_SURFACE ( 'NONE', #237, 1.499999999999999112 ) ;
#100 = PERSON_AND_ORGANIZATION_ROLE ( 'design_owner' ) ;
#101 = DIRECTION ( 'NONE',  ( 4.275831445896958607E-31, 1.000000000000000000, 1.224646799147353207E-16 ) ) ;
#102 = APPLICATION_PROTOCOL_DEFINITION ( 'international standard', 'config_control_design', 1994, #303 ) ;
#103 = DIRECTION ( 'NONE',  ( 4.275831445896958607E-31, 1.000000000000000000, 1.224646799147353207E-16 ) ) ;
#104 = EDGE_CURVE ( 'NONE', #57, #57, #199, .T. ) ;
#105 = VERTEX_POINT ( 'NONE', #286 ) ;
#106 = APPROVAL_DATE_TIME ( #217, #241 ) ;
#107 = FACE_OUTER_BOUND ( 'NONE', #163, .T. ) ;
#108 = DIRECTION ( 'NONE',  ( -4.275831445896958607E-31, -1.000000000000000000, -1.224646799147353207E-16 ) ) ;
#109 = EDGE_LOOP ( 'NONE', ( #188 ) ) ;
#110 = APPROVAL ( #229, 'UNSPECIFIED' ) ;
#111 = DATE_AND_TIME ( #98, #196 ) ;
#112 = EDGE_LOOP ( 'NONE', ( #269 ) ) ;
#113 =( GEOMETRIC_REPRESENTATION_CONTEXT ( 3 ) GLOBAL_UNCERTAINTY_ASSIGNED_CONTEXT ( ( #265 ) ) GLOBAL_UNIT_ASSIGNED_CONTEXT ( ( #252, #164, #273 ) ) REPRESENTATION_CONTEXT ( 'NONE', 'WORKASPACE' ) );
#114 = DIRECTION ( 'NONE',  ( 3.491481338843133355E-15, -1.224646799147353207E-16, 1.000000000000000000 ) ) ;
#115 = CARTESIAN_POINT ( 'NONE',  ( 6.056776150402963091E-14, 0.8353844939755781240, 17.34729635533384595 ) ) ;
#116 = CARTESIAN_POINT ( 'NONE',  ( 1.735266225405037467E-13, -6.086494591762345225E-15, 49.70000000000000284 ) ) ;
#117 = CARTESIAN_POINT ( 'NONE',  ( 1.745740669421566678E-13, 1.199999999999995515, 50.00000000000000000 ) ) ;
#118 = ORIENTED_EDGE ( 'NONE', *, *, #194, .F. ) ;
#119 = CC_DESIGN_SECURITY_CLASSIFICATION ( #92, ( #285 ) ) ;
#120 = CC_DESIGN_PERSON_AND_ORGANIZATION_ASSIGNMENT ( #40, #231, ( #178 ) ) ;
#121 = EDGE_LOOP ( 'NONE', ( #203 ) ) ;
#122 = DATE_TIME_ROLE ( 'classification_date' ) ;
#123 = FACE_OUTER_BOUND ( 'NONE', #31, .T. ) ;
#124 = CIRCLE ( 'NONE', #288, 0.8050000000000002709 ) ;
#125 = ADVANCED_FACE ( 'NONE', ( #107 ), #35, .T. ) ;
#126 = PERSON_AND_ORGANIZATION ( #192, #301 ) ;
#127 = DIRECTION ( 'NONE',  ( -3.491481338843133355E-15, 1.224646799147353207E-16, -1.000000000000000000 ) ) ;
#128 = DIRECTION ( 'NONE',  ( 0.0000000000000000000, 1.000000000000000000, 0.0000000000000000000 ) ) ;
#129 = CIRCLE ( 'NONE', #238, 0.8050000000000000488 ) ;
#130 = CARTESIAN_POINT ( 'NONE',  ( 8.728703347107831416E-16, -3.061616997868382402E-17, 0.2499999999999999445 ) ) ;
#131 = ADVANCED_FACE ( 'NONE', ( #133 ), #292, .F. ) ;
#132 = ORIENTED_EDGE ( 'NONE', *, *, #89, .F. ) ;
#133 = FACE_OUTER_BOUND ( 'NONE', #112, .T. ) ;
#134 = EDGE_LOOP ( 'NONE', ( #168 ) ) ;
#135 = DIRECTION ( 'NONE',  ( 3.491481338843133355E-15, -1.224646799147353207E-16, 1.000000000000000000 ) ) ;
#136 = ORIENTED_EDGE ( 'NONE', *, *, #274, .F. ) ;
#137 = CARTESIAN_POINT ( 'NONE',  ( 5.935518276033326704E-14, 0.8049999999999979394, 17.00000000000000000 ) ) ;
#138 = CC_DESIGN_DATE_AND_TIME_ASSIGNMENT ( #294, #44, ( #178 ) ) ;
#139 = CARTESIAN_POINT ( 'NONE',  ( 2.793185071074506684E-14, 6.812658812741473048E-33, 8.000000000000000000 ) ) ;
#140 = DIRECTION ( 'NONE',  ( -3.491481338843133355E-15, 1.224646799147353207E-16, -1.000000000000000000 ) ) ;
#141 = ORIENTED_EDGE ( 'NONE', *, *, #183, .T. ) ;
#142 = EDGE_CURVE ( 'NONE', #254, #254, #77, .T. ) ;
#143 = CARTESIAN_POINT ( 'NONE',  ( 7.372792920761422339E-14, -2.586027641258547078E-15, 21.11651819168628919 ) ) ;
#144 = CIRCLE ( 'NONE', #222, 0.9085000000000000853 ) ;
#145 = DATE_AND_TIME ( #173, #78 ) ;
#146 = PERSON_AND_ORGANIZATION ( #192, #301 ) ;
#147 = FACE_OUTER_BOUND ( 'NONE', #186, .T. ) ;
#148 = FACE_OUTER_BOUND ( 'NONE', #18, .T. ) ;
#149 = APPROVAL_DATE_TIME ( #111, #110 ) ;
#150 = CALENDAR_DATE ( 2021, 30, 11 ) ;
#151 = DIRECTION ( 'NONE',  ( 0.0000000000000000000, 0.0000000000000000000, 1.000000000000000000 ) ) ;
#152 = CONICAL_SURFACE ( 'NONE', #207, 0.9085000000000000853, 0.5235987755983020353 ) ;
#153 = AXIS2_PLACEMENT_3D ( 'NONE', #51, #179, #52 ) ;
#154 = DIRECTION ( 'NONE',  ( -3.491481338843133355E-15, 1.224646799147353207E-16, -1.000000000000000000 ) ) ;
#155 = DESIGN_CONTEXT ( 'detailed design', #36, 'design' ) ;
#156 = SECURITY_CLASSIFICATION_LEVEL ( 'unclassified' ) ;
#157 = DIRECTION ( 'NONE',  ( 0.0000000000000000000, 1.000000000000000000, 0.0000000000000000000 ) ) ;
#158 = FACE_OUTER_BOUND ( 'NONE', #204, .T. ) ;
#159 = CC_DESIGN_APPROVAL ( #241, ( #285 ) ) ;
#160 = ADVANCED_FACE ( 'NONE', ( #158, #62 ), #66, .T. ) ;
#161 = EDGE_LOOP ( 'NONE', ( #225 ) ) ;
#162 = VERTEX_POINT ( 'NONE', #205 ) ;
#163 = EDGE_LOOP ( 'NONE', ( #20 ) ) ;
#164 =( NAMED_UNIT ( * ) PLANE_ANGLE_UNIT ( ) SI_UNIT ( $, .RADIAN. ) );
#165 = DIRECTION ( 'NONE',  ( 0.0000000000000000000, -1.000000000000000000, 0.0000000000000000000 ) ) ;
#166 = COORDINATED_UNIVERSAL_TIME_OFFSET ( 1, 0, .AHEAD. ) ;
#167 = EDGE_LOOP ( 'NONE', ( #88 ) ) ;
#168 = ORIENTED_EDGE ( 'NONE', *, *, #104, .F. ) ;
#169 = VERTEX_POINT ( 'NONE', #137 ) ;
#170 = CC_DESIGN_PERSON_AND_ORGANIZATION_ASSIGNMENT ( #244, #74, ( #92 ) ) ;
#171 = FACE_OUTER_BOUND ( 'NONE', #236, .T. ) ;
#172 = DIRECTION ( 'NONE',  ( 0.0000000000000000000, 1.000000000000000000, 0.0000000000000000000 ) ) ;
#173 = CALENDAR_DATE ( 2021, 30, 11 ) ;
#174 = CARTESIAN_POINT ( 'NONE',  ( 0.0000000000000000000, 0.0000000000000000000, 0.0000000000000000000 ) ) ;
#175 = AXIS2_PLACEMENT_3D ( 'NONE', #116, #211, #295 ) ;
#176 = AXIS2_PLACEMENT_3D ( 'NONE', #1, #201, #157 ) ;
#177 = DIRECTION ( 'NONE',  ( -3.491481338843133355E-15, 1.224646799147353207E-16, -1.000000000000000000 ) ) ;
#178 = PRODUCT_DEFINITION ( 'UNKNOWN', '', #285, #155 ) ;
#179 = DIRECTION ( 'NONE',  ( -3.491481338843133355E-15, 1.224646799147353207E-16, -1.000000000000000000 ) ) ;
#180 = PRODUCT_DEFINITION_SHAPE ( 'NONE', 'NONE',  #178 ) ;
#181 = CONICAL_SURFACE ( 'NONE', #42, 0.9084999999999991971, 0.5235987755982923764 ) ;
#182 = PERSON_AND_ORGANIZATION_ROLE ( 'design_supplier' ) ;
#183 = EDGE_CURVE ( 'NONE', #162, #162, #144, .T. ) ;
#184 = DIRECTION ( 'NONE',  ( -3.491481338843133355E-15, 1.224646799147353207E-16, -1.000000000000000000 ) ) ;
#185 = CC_DESIGN_APPROVAL ( #33, ( #178 ) ) ;
#186 = EDGE_LOOP ( 'NONE', ( #191 ) ) ;
#187 = APPROVAL_ROLE ( '' ) ;
#188 = ORIENTED_EDGE ( 'NONE', *, *, #3, .T. ) ;
#189 = LOCAL_TIME ( 9, 32, 50.00000000000000000, #277 ) ;
#190 = FACE_OUTER_BOUND ( 'NONE', #85, .T. ) ;
#191 = ORIENTED_EDGE ( 'NONE', *, *, #3, .F. ) ;
#192 = PERSON ( 'UNSPECIFIED', 'UNSPECIFIED', 'UNSPECIFIED', ('UNSPECIFIED'), ('UNSPECIFIED'), ('UNSPECIFIED') ) ;
#193 = AXIS2_PLACEMENT_3D ( 'NONE', #139, #114, #15 ) ;
#194 = EDGE_CURVE ( 'NONE', #235, #235, #215, .T. ) ;
#195 = DIRECTION ( 'NONE',  ( 4.275831445896958607E-31, 1.000000000000000000, 1.224646799147353207E-16 ) ) ;
#196 = LOCAL_TIME ( 9, 32, 50.00000000000000000, #166 ) ;
#197 = PERSON_AND_ORGANIZATION ( #192, #301 ) ;
#198 = DIRECTION ( 'NONE',  ( 3.491481338843133355E-15, -1.224646799147353207E-16, 1.000000000000000000 ) ) ;
#199 = CIRCLE ( 'NONE', #48, 1.499999999999996669 ) ;
#200 = AXIS2_PLACEMENT_3D ( 'NONE', #83, #184, #63 ) ;
#201 = DIRECTION ( 'NONE',  ( -3.491481338843133355E-15, 1.224646799147353207E-16, -1.000000000000000000 ) ) ;
#202 = DIRECTION ( 'NONE',  ( -4.239801748788635499E-31, -1.000000000000000000, -1.193398098498079758E-16 ) ) ;
#203 = ORIENTED_EDGE ( 'NONE', *, *, #104, .T. ) ;
#204 = EDGE_LOOP ( 'NONE', ( #132 ) ) ;
#205 = CARTESIAN_POINT ( 'NONE',  ( 2.793185071074506684E-14, 0.9084999999999991971, 8.000000000000000000 ) ) ;
#206 = PRODUCT_RELATED_PRODUCT_CATEGORY ( 'detail', '', ( #223 ) ) ;
#207 = AXIS2_PLACEMENT_3D ( 'NONE', #12, #73, #172 ) ;
#208 = ORIENTED_EDGE ( 'NONE', *, *, #142, .F. ) ;
#209 = AXIS2_PLACEMENT_3D ( 'NONE', #226, #198, #82 ) ;
#210 = AXIS2_PLACEMENT_3D ( 'NONE', #53, #151, #97 ) ;
#211 = DIRECTION ( 'NONE',  ( -3.491481338843133355E-15, 1.224646799147353207E-16, -1.000000000000000000 ) ) ;
#212 = ORIENTED_EDGE ( 'NONE', *, *, #255, .F. ) ;
#213 = FACE_OUTER_BOUND ( 'NONE', #134, .T. ) ;
#214 = CARTESIAN_POINT ( 'NONE',  ( 5.935518276033326704E-14, -2.168404344971008868E-15, 17.00000000000000000 ) ) ;
#215 = CIRCLE ( 'NONE', #200, 0.9084999999999991971 ) ;
#216 = DIRECTION ( 'NONE',  ( 4.275831445896958607E-31, 1.000000000000000000, 1.224646799147353207E-16 ) ) ;
#217 = DATE_AND_TIME ( #150, #50 ) ;
#218 = PERSON_AND_ORGANIZATION_ROLE ( 'creator' ) ;
#219 = ADVANCED_FACE ( 'NONE', ( #246, #29 ), #181, .T. ) ;
#220 = CARTESIAN_POINT ( 'NONE',  ( 2.793185071074506684E-14, 6.812658812741473048E-33, 8.000000000000000000 ) ) ;
#221 = AXIS2_PLACEMENT_3D ( 'NONE', #220, #135, #108 ) ;
#222 = AXIS2_PLACEMENT_3D ( 'NONE', #28, #290, #128 ) ;
#223 = PRODUCT ( '962183', '962183', '', ( #79 ) ) ;
#224 = ADVANCED_FACE ( 'NONE', ( #287, #123 ), #289, .F. ) ;
#225 = ORIENTED_EDGE ( 'NONE', *, *, #255, .T. ) ;
#226 = CARTESIAN_POINT ( 'NONE',  ( -6.873469665698560986E-32, 2.410888619534551996E-33, -1.968639954975676655E-17 ) ) ;
#227 = ORIENTED_EDGE ( 'NONE', *, *, #281, .F. ) ;
#228 = CIRCLE ( 'NONE', #175, 1.500000000000001554 ) ;
#229 = APPROVAL_STATUS ( 'not_yet_approved' ) ;
#230 = EDGE_LOOP ( 'NONE', ( #136 ) ) ;
#231 = PERSON_AND_ORGANIZATION_ROLE ( 'creator' ) ;
#232 = CARTESIAN_POINT ( 'NONE',  ( 0.0000000000000000000, 0.0000000000000000000, 0.0000000000000000000 ) ) ;
#233 = CARTESIAN_POINT ( 'NONE',  ( 2.793185071074506684E-14, 0.9084999999999991971, 8.000000000000000000 ) ) ;
#234 = DIRECTION ( 'NONE',  ( 4.275831445896958607E-31, 1.000000000000000000, 1.224646799147353207E-16 ) ) ;
#235 = VERTEX_POINT ( 'NONE', #39 ) ;
#236 = EDGE_LOOP ( 'NONE', ( #141 ) ) ;
#237 = AXIS2_PLACEMENT_3D ( 'NONE', #283, #177, #245 ) ;
#238 = AXIS2_PLACEMENT_3D ( 'NONE', #25, #54, #264 ) ;
#239 = EDGE_LOOP ( 'NONE', ( #227 ) ) ;
#240 = PLANE ( 'NONE',  #30 ) ;
#241 = APPROVAL ( #59, 'UNSPECIFIED' ) ;
#242 = CARTESIAN_POINT ( 'NONE',  ( 1.745740669421566678E-13, 8.998558695971067645E-33, 50.00000000000000000 ) ) ;
#243 = SHAPE_DEFINITION_REPRESENTATION ( #180, #46 ) ;
#244 = PERSON_AND_ORGANIZATION ( #192, #301 ) ;
#245 = DIRECTION ( 'NONE',  ( 4.275831445896958607E-31, 1.000000000000000000, 1.224646799147353454E-16 ) ) ;
#246 = FACE_BOUND ( 'NONE', #278, .T. ) ;
#247 = AXIS2_PLACEMENT_3D ( 'NONE', #143, #257, #165 ) ;
#248 = CIRCLE ( 'NONE', #153, 0.8353844939755802335 ) ;
#249 = DIRECTION ( 'NONE',  ( -3.491481338843133355E-15, 1.224646799147353207E-16, -1.000000000000000000 ) ) ;
#250 = MANIFOLD_SOLID_BREP ( 'Corps-Déplacer/Copier1[2]', #56 ) ;
#251 = MANIFOLD_SOLID_BREP ( 'Corps-Déplacer/Copier1[1]', #256 ) ;
#252 =( LENGTH_UNIT ( ) NAMED_UNIT ( * ) SI_UNIT ( .MILLI., .METRE. ) );
#253 = FACE_OUTER_BOUND ( 'NONE', #64, .T. ) ;
#254 = VERTEX_POINT ( 'NONE', #233 ) ;
#255 = EDGE_CURVE ( 'NONE', #16, #16, #4, .T. ) ;
#256 = CLOSED_SHELL ( 'NONE', ( #60, #27, #291, #224, #22, #94, #160, #298 ) ) ;
#257 = DIRECTION ( 'NONE',  ( 3.491481338843133355E-15, -1.224646799147353207E-16, 1.000000000000000000 ) ) ;
#258 = CYLINDRICAL_SURFACE ( 'NONE', #24, 0.9084999999999996412 ) ;
#259 = CC_DESIGN_DATE_AND_TIME_ASSIGNMENT ( #145, #122, ( #92 ) ) ;
#260 = ORIENTED_EDGE ( 'NONE', *, *, #281, .T. ) ;
#261 = DIRECTION ( 'NONE',  ( -3.491481338843133355E-15, 1.224646799147353207E-16, -1.000000000000000000 ) ) ;
#262 = AXIS2_PLACEMENT_3D ( 'NONE', #214, #266, #101 ) ;
#263 = CARTESIAN_POINT ( 'NONE',  ( 1.745740669421566678E-13, -6.123233995736766085E-15, 50.00000000000000000 ) ) ;
#264 = DIRECTION ( 'NONE',  ( 0.0000000000000000000, 1.000000000000000000, 0.0000000000000000000 ) ) ;
#265 = UNCERTAINTY_MEASURE_WITH_UNIT (LENGTH_MEASURE( 1.000000000000000082E-05 ), #252, 'distance_accuracy_value', 'NONE');
#266 = DIRECTION ( 'NONE',  ( -3.491481338843133355E-15, 1.224646799147353207E-16, -1.000000000000000000 ) ) ;
#267 = DIRECTION ( 'NONE',  ( 0.0000000000000000000, 1.000000000000000000, 0.0000000000000000000 ) ) ;
#268 = CARTESIAN_POINT ( 'NONE',  ( 2.793185071074506684E-14, -9.797174393178825657E-16, 8.000000000000000000 ) ) ;
#269 = ORIENTED_EDGE ( 'NONE', *, *, #84, .T. ) ;
#270 = CARTESIAN_POINT ( 'NONE',  ( 7.372792920761422339E-14, -2.586027641258547078E-15, 21.11651819168628919 ) ) ;
#271 = APPROVAL_ROLE ( '' ) ;
#272 = EDGE_LOOP ( 'NONE', ( #208 ) ) ;
#273 =( NAMED_UNIT ( * ) SI_UNIT ( $, .STERADIAN. ) SOLID_ANGLE_UNIT ( ) );
#274 = EDGE_CURVE ( 'NONE', #13, #13, #248, .T. ) ;
#275 = DIRECTION ( 'NONE',  ( -3.491481338843133355E-15, 1.224646799147353207E-16, -1.000000000000000000 ) ) ;
#276 = ORIENTED_EDGE ( 'NONE', *, *, #274, .T. ) ;
#277 = COORDINATED_UNIVERSAL_TIME_OFFSET ( 1, 0, .AHEAD. ) ;
#278 = EDGE_LOOP ( 'NONE', ( #45 ) ) ;
#279 = AXIS2_PLACEMENT_3D ( 'NONE', #263, #154, #80 ) ;
#280 = DIRECTION ( 'NONE',  ( -3.491481338843133355E-15, 1.224646799147353207E-16, -1.000000000000000000 ) ) ;
#281 = EDGE_CURVE ( 'NONE', #169, #169, #129, .T. ) ;
#282 = FACE_OUTER_BOUND ( 'NONE', #272, .T. ) ;
#283 = CARTESIAN_POINT ( 'NONE',  ( 0.0000000000000000000, 0.0000000000000000000, 0.0000000000000000000 ) ) ;
#284 = AXIS2_PLACEMENT_3D ( 'NONE', #268, #86, #267 ) ;
#285 = PRODUCT_DEFINITION_FORMATION_WITH_SPECIFIED_SOURCE ( 'ANY', '', #223, .NOT_KNOWN. ) ;
#286 = CARTESIAN_POINT ( 'NONE',  ( 1.735266225405037467E-13, 1.499999999999995559, 49.70000000000000284 ) ) ;
#287 = FACE_OUTER_BOUND ( 'NONE', #239, .T. ) ;
#288 = AXIS2_PLACEMENT_3D ( 'NONE', #96, #280, #72 ) ;
#289 = TOROIDAL_SURFACE ( 'NONE', #262, 2.805000000000000604, 2.000000000000000888 ) ;
#290 = DIRECTION ( 'NONE',  ( -3.491481338843133355E-15, 1.224646799147353207E-16, -1.000000000000000000 ) ) ;
#291 = ADVANCED_FACE ( 'NONE', ( #61, #147 ), #76, .T. ) ;
#292 = PLANE ( 'NONE',  #209 ) ;
#293 = CALENDAR_DATE ( 2021, 30, 11 ) ;
#294 = DATE_AND_TIME ( #9, #189 ) ;
#295 = DIRECTION ( 'NONE',  ( 0.0000000000000000000, 1.000000000000000000, 0.0000000000000000000 ) ) ;
#296 = CC_DESIGN_PERSON_AND_ORGANIZATION_ASSIGNMENT ( #75, #100, ( #223 ) ) ;
#297 = FACE_OUTER_BOUND ( 'NONE', #34, .T. ) ;
#298 = ADVANCED_FACE ( 'NONE', ( #148 ), #240, .F. ) ;
#299 = COORDINATED_UNIVERSAL_TIME_OFFSET ( 1, 0, .AHEAD. ) ;
#300 = CARTESIAN_POINT ( 'NONE',  ( 1.892735826383161356E-31, 0.7641624327025948737, 5.421010862427522170E-17 ) ) ;
#301 = ORGANIZATION ( 'UNSPECIFIED', 'UNSPECIFIED', '' ) ;
#302 = CARTESIAN_POINT ( 'NONE',  ( 2.855775899875449572E-14, 0.8049999999999992717, 8.179267258583378108 ) ) ;
#303 = APPLICATION_CONTEXT ( 'configuration controlled 3d designs of mechanical parts and assemblies' ) ;
ENDSEC;
END-ISO-10303-21;
