ISO-10303-21;
HEADER;
FILE_DESCRIPTION (( 'STEP AP203' ),
    '1' );
FILE_NAME ('962116.step',
    '2021-11-25T13:47:08',
    ( '' ),
    ( '' ),
    'SwSTEP 2.0',
    'SolidWorks 2019',
    '' );
FILE_SCHEMA (( 'CONFIG_CONTROL_DESIGN' ));
ENDSEC;

DATA;
#1 = DIRECTION ( 'NONE',  ( -4.275831445896958607E-31, -1.000000000000000000, -1.224646799147353207E-16 ) ) ;
#2 = CARTESIAN_POINT ( 'NONE',  ( 1.824254005033808528E-14, -6.398621706042480395E-16, 5.224871130596552504 ) ) ;
#3 = VERTEX_POINT ( 'NONE', #165 ) ;
#4 = MANIFOLD_SOLID_BREP ( 'Corps-Déplacer/Copier1[1]', #178 ) ;
#5 = DATE_AND_TIME ( #74, #98 ) ;
#6 = LOCAL_TIME ( 14, 47, 8.000000000000000000, #58 ) ;
#7 = PERSON_AND_ORGANIZATION ( #79, #71 ) ;
#8 = ADVANCED_FACE ( 'NONE', ( #128, #80 ), #138, .T. ) ;
#9 = COORDINATED_UNIVERSAL_TIME_OFFSET ( 1, 0, .AHEAD. ) ;
#10 = COORDINATED_UNIVERSAL_TIME_OFFSET ( 1, 0, .AHEAD. ) ;
#11 = AXIS2_PLACEMENT_3D ( 'NONE', #189, #87, #190 ) ;
#12 = MECHANICAL_CONTEXT ( 'NONE', #157, 'mechanical' ) ;
#13 = FACE_OUTER_BOUND ( 'NONE', #34, .T. ) ;
#14 = AXIS2_PLACEMENT_3D ( 'NONE', #2, #149, #105 ) ;
#15 = DIRECTION ( 'NONE',  ( -3.491481338843133355E-15, 1.224646799147353207E-16, -1.000000000000000000 ) ) ;
#16 = EDGE_LOOP ( 'NONE', ( #113 ) ) ;
#17 = ORIENTED_EDGE ( 'NONE', *, *, #61, .F. ) ;
#18 = DIRECTION ( 'NONE',  ( -3.491481338843133355E-15, 1.224646799147353207E-16, -1.000000000000000000 ) ) ;
#19 = AXIS2_PLACEMENT_3D ( 'NONE', #88, #147, #1 ) ;
#20 = FACE_OUTER_BOUND ( 'NONE', #129, .T. ) ;
#21 = APPROVAL ( #92, 'UNSPECIFIED' ) ;
#22 = DIRECTION ( 'NONE',  ( 4.275831445896958607E-31, 1.000000000000000000, 1.224646799147353207E-16 ) ) ;
#23 = CC_DESIGN_PERSON_AND_ORGANIZATION_ASSIGNMENT ( #152, #25, ( #62 ) ) ;
#24 = CARTESIAN_POINT ( 'NONE',  ( 0.0000000000000000000, 0.0000000000000000000, 0.0000000000000000000 ) ) ;
#25 = PERSON_AND_ORGANIZATION_ROLE ( 'design_owner' ) ;
#26 = LOCAL_TIME ( 14, 47, 8.000000000000000000, #9 ) ;
#27 = PRODUCT_DEFINITION ( 'UNKNOWN', '', #183, #196 ) ;
#28 = PERSON_AND_ORGANIZATION ( #79, #71 ) ;
#29 = EDGE_LOOP ( 'NONE', ( #111 ) ) ;
#30 = ORIENTED_EDGE ( 'NONE', *, *, #104, .T. ) ;
#31 = AXIS2_PLACEMENT_3D ( 'NONE', #44, #15, #93 ) ;
#32 = EDGE_LOOP ( 'NONE', ( #30 ) ) ;
#33 = ORIENTED_EDGE ( 'NONE', *, *, #112, .T. ) ;
#34 = EDGE_LOOP ( 'NONE', ( #47 ) ) ;
#35 = ADVANCED_BREP_SHAPE_REPRESENTATION ( '962116', ( #4, #145, #118 ), #197 ) ;
#36 = FACE_OUTER_BOUND ( 'NONE', #173, .T. ) ;
#37 = DIRECTION ( 'NONE',  ( 4.275831445896958607E-31, 1.000000000000000000, 1.224646799147353207E-16 ) ) ;
#38 = EDGE_CURVE ( 'NONE', #119, #119, #109, .T. ) ;
#39 = CC_DESIGN_SECURITY_CLASSIFICATION ( #77, ( #183 ) ) ;
#40 = DIRECTION ( 'NONE',  ( 0.0000000000000000000, -1.000000000000000000, 0.0000000000000000000 ) ) ;
#41 = DATE_AND_TIME ( #140, #64 ) ;
#42 = APPROVAL_STATUS ( 'not_yet_approved' ) ;
#43 = CIRCLE ( 'NONE', #170, 0.1000000000000000611 ) ;
#44 = CARTESIAN_POINT ( 'NONE',  ( 1.326762908760390423E-13, -4.653657836759941941E-15, 38.00000000000000000 ) ) ;
#45 = CC_DESIGN_PERSON_AND_ORGANIZATION_ASSIGNMENT ( #180, #182, ( #77 ) ) ;
#46 = AXIS2_PLACEMENT_3D ( 'NONE', #99, #18, #22 ) ;
#47 = ORIENTED_EDGE ( 'NONE', *, *, #89, .T. ) ;
#48 = ADVANCED_FACE ( 'NONE', ( #155, #13 ), #200, .T. ) ;
#49 = DIRECTION ( 'NONE',  ( 3.491481338843133355E-15, -1.224646799147353207E-16, 1.000000000000000000 ) ) ;
#50 = CARTESIAN_POINT ( 'NONE',  ( 1.316288464743861212E-13, 1.499999999999995781, 37.69999999999999574 ) ) ;
#51 = CARTESIAN_POINT ( 'NONE',  ( -3.092871554407485195E-32, 1.084833307610927426E-33, -8.858336202456337495E-18 ) ) ;
#52 = CLOSED_SHELL ( 'NONE', ( #201, #96, #75 ) ) ;
#53 = VERTEX_POINT ( 'NONE', #179 ) ;
#54 = UNCERTAINTY_MEASURE_WITH_UNIT (LENGTH_MEASURE( 1.000000000000000082E-05 ), #84, 'distance_accuracy_value', 'NONE');
#55 = DIRECTION ( 'NONE',  ( 1.000000000000000000, 0.0000000000000000000, 0.0000000000000000000 ) ) ;
#56 = PERSON_AND_ORGANIZATION ( #79, #71 ) ;
#57 = AXIS2_PLACEMENT_3D ( 'NONE', #184, #95, #94 ) ;
#58 = COORDINATED_UNIVERSAL_TIME_OFFSET ( 1, 0, .AHEAD. ) ;
#59 = PERSON_AND_ORGANIZATION ( #79, #71 ) ;
#60 = DATE_TIME_ROLE ( 'creation_date' ) ;
#61 = EDGE_CURVE ( 'NONE', #3, #3, #43, .T. ) ;
#62 = PRODUCT ( '962116', '962116', '', ( #12 ) ) ;
#63 = CARTESIAN_POINT ( 'NONE',  ( 0.0000000000000000000, 0.0000000000000000000, 0.0000000000000000000 ) ) ;
#64 = LOCAL_TIME ( 14, 47, 8.000000000000000000, #195 ) ;
#65 = EDGE_LOOP ( 'NONE', ( #17 ) ) ;
#66 =( NAMED_UNIT ( * ) PLANE_ANGLE_UNIT ( ) SI_UNIT ( $, .RADIAN. ) );
#67 = CARTESIAN_POINT ( 'NONE',  ( 1.326762908760390423E-13, 1.199999999999995515, 38.00000000000000000 ) ) ;
#68 = APPLICATION_PROTOCOL_DEFINITION ( 'international standard', 'config_control_design', 1994, #157 ) ;
#69 =( NAMED_UNIT ( * ) SI_UNIT ( $, .STERADIAN. ) SOLID_ANGLE_UNIT ( ) );
#70 = VERTEX_POINT ( 'NONE', #50 ) ;
#71 = ORGANIZATION ( 'UNSPECIFIED', 'UNSPECIFIED', '' ) ;
#72 = PERSON_AND_ORGANIZATION_ROLE ( 'design_supplier' ) ;
#73 = APPROVAL_ROLE ( '' ) ;
#74 = CALENDAR_DATE ( 2021, 25, 11 ) ;
#75 = ADVANCED_FACE ( 'NONE', ( #20 ), #136, .T. ) ;
#76 = APPROVAL_ROLE ( '' ) ;
#77 = SECURITY_CLASSIFICATION ( '', '', #120 ) ;
#78 = APPROVAL_PERSON_ORGANIZATION ( #56, #117, #169 ) ;
#79 = PERSON ( 'UNSPECIFIED', 'UNSPECIFIED', 'UNSPECIFIED', ('UNSPECIFIED'), ('UNSPECIFIED'), ('UNSPECIFIED') ) ;
#80 = FACE_BOUND ( 'NONE', #29, .T. ) ;
#81 = PRODUCT_RELATED_PRODUCT_CATEGORY ( 'detail', '', ( #62 ) ) ;
#82 = AXIS2_PLACEMENT_3D ( 'NONE', #63, #172, #116 ) ;
#83 = DIRECTION ( 'NONE',  ( -3.491481338843133355E-15, 1.224646799147353207E-16, -1.000000000000000000 ) ) ;
#84 =( LENGTH_UNIT ( ) NAMED_UNIT ( * ) SI_UNIT ( .MILLI., .METRE. ) );
#85 = CIRCLE ( 'NONE', #14, 1.499999999999996225 ) ;
#86 = FACE_OUTER_BOUND ( 'NONE', #174, .T. ) ;
#87 = DIRECTION ( 'NONE',  ( -3.491481338843133355E-15, 1.224646799147353207E-16, -1.000000000000000000 ) ) ;
#88 = CARTESIAN_POINT ( 'NONE',  ( -1.546435777203742597E-32, 5.424166538054637132E-34, -4.429168101228168747E-18 ) ) ;
#89 = EDGE_CURVE ( 'NONE', #70, #70, #133, .T. ) ;
#90 = APPROVAL_DATE_TIME ( #123, #117 ) ;
#91 = PRODUCT_DEFINITION_SHAPE ( 'NONE', 'NONE',  #27 ) ;
#92 = APPROVAL_STATUS ( 'not_yet_approved' ) ;
#93 = DIRECTION ( 'NONE',  ( 0.0000000000000000000, 1.000000000000000000, 0.0000000000000000000 ) ) ;
#94 = DIRECTION ( 'NONE',  ( 0.0000000000000000000, 1.000000000000000000, 0.0000000000000000000 ) ) ;
#95 = DIRECTION ( 'NONE',  ( -3.491481338843133355E-15, 1.224646799147353207E-16, -1.000000000000000000 ) ) ;
#96 = ADVANCED_FACE ( 'NONE', ( #177, #132 ), #124, .T. ) ;
#97 = ORIENTED_EDGE ( 'NONE', *, *, #38, .F. ) ;
#98 = LOCAL_TIME ( 14, 47, 8.000000000000000000, #139 ) ;
#99 = CARTESIAN_POINT ( 'NONE',  ( 1.326762908760390423E-13, 8.998558695971078593E-33, 38.00000000000000000 ) ) ;
#100 = PLANE ( 'NONE',  #46 ) ;
#101 = DIRECTION ( 'NONE',  ( -3.491481338843133355E-15, 1.224646799147353207E-16, -1.000000000000000000 ) ) ;
#102 = CIRCLE ( 'NONE', #11, 1.499999999999996225 ) ;
#103 = DIRECTION ( 'NONE',  ( -4.275831445896958607E-31, -1.000000000000000000, -1.224646799147353207E-16 ) ) ;
#104 = EDGE_CURVE ( 'NONE', #53, #53, #102, .T. ) ;
#105 = DIRECTION ( 'NONE',  ( 0.0000000000000000000, 1.000000000000000000, 0.0000000000000000000 ) ) ;
#106 = DATE_TIME_ROLE ( 'classification_date' ) ;
#107 = AXIS2_PLACEMENT_3D ( 'NONE', #187, #101, #164 ) ;
#108 = CALENDAR_DATE ( 2021, 25, 11 ) ;
#109 = CIRCLE ( 'NONE', #31, 1.200000000000000178 ) ;
#110 = EDGE_LOOP ( 'NONE', ( #146 ) ) ;
#111 = ORIENTED_EDGE ( 'NONE', *, *, #38, .T. ) ;
#112 = EDGE_CURVE ( 'NONE', #134, #134, #85, .T. ) ;
#113 = ORIENTED_EDGE ( 'NONE', *, *, #89, .F. ) ;
#114 = CARTESIAN_POINT ( 'NONE',  ( 1.824254005033808843E-14, 3.021235536399782576E-15, 5.224871130596553392 ) ) ;
#115 = FACE_OUTER_BOUND ( 'NONE', #158, .T. ) ;
#116 = DIRECTION ( 'NONE',  ( 4.275831445896958607E-31, 1.000000000000000000, 1.224646799147353207E-16 ) ) ;
#117 = APPROVAL ( #42, 'UNSPECIFIED' ) ;
#118 = AXIS2_PLACEMENT_3D ( 'NONE', #24, #167, #55 ) ;
#119 = VERTEX_POINT ( 'NONE', #67 ) ;
#120 = SECURITY_CLASSIFICATION_LEVEL ( 'unclassified' ) ;
#121 = APPLICATION_CONTEXT ( 'configuration controlled 3d designs of mechanical parts and assemblies' ) ;
#122 = CC_DESIGN_DATE_AND_TIME_ASSIGNMENT ( #143, #60, ( #27 ) ) ;
#123 = DATE_AND_TIME ( #166, #6 ) ;
#124 = CONICAL_SURFACE ( 'NONE', #171, 1.499999999999996225, 0.2617993877991428020 ) ;
#125 = APPLICATION_PROTOCOL_DEFINITION ( 'international standard', 'config_control_design', 1994, #121 ) ;
#126 = APPROVAL_DATE_TIME ( #5, #154 ) ;
#127 = CC_DESIGN_APPROVAL ( #117, ( #77 ) ) ;
#128 = FACE_OUTER_BOUND ( 'NONE', #16, .T. ) ;
#129 = EDGE_LOOP ( 'NONE', ( #131 ) ) ;
#130 = AXIS2_PLACEMENT_3D ( 'NONE', #162, #49, #176 ) ;
#131 = ORIENTED_EDGE ( 'NONE', *, *, #104, .F. ) ;
#132 = FACE_OUTER_BOUND ( 'NONE', #32, .T. ) ;
#133 = CIRCLE ( 'NONE', #107, 1.500000000000000222 ) ;
#134 = VERTEX_POINT ( 'NONE', #160 ) ;
#135 = CC_DESIGN_DATE_AND_TIME_ASSIGNMENT ( #41, #106, ( #77 ) ) ;
#136 = PLANE ( 'NONE',  #153 ) ;
#137 = DIRECTION ( 'NONE',  ( 3.491481338843133355E-15, -1.224646799147353207E-16, 1.000000000000000000 ) ) ;
#138 = CONICAL_SURFACE ( 'NONE', #57, 1.200000000000000178, 0.7853981633974457255 ) ;
#139 = COORDINATED_UNIVERSAL_TIME_OFFSET ( 1, 0, .AHEAD. ) ;
#140 = CALENDAR_DATE ( 2021, 25, 11 ) ;
#141 = PERSON_AND_ORGANIZATION ( #79, #71 ) ;
#142 = PERSON_AND_ORGANIZATION ( #79, #71 ) ;
#143 = DATE_AND_TIME ( #108, #26 ) ;
#144 = CC_DESIGN_APPROVAL ( #154, ( #183 ) ) ;
#145 = MANIFOLD_SOLID_BREP ( 'Corps-Déplacer/Copier1[2]', #52 ) ;
#146 = ORIENTED_EDGE ( 'NONE', *, *, #112, .F. ) ;
#147 = DIRECTION ( 'NONE',  ( 3.491481338843133355E-15, -1.224646799147353207E-16, 1.000000000000000000 ) ) ;
#148 = PLANE ( 'NONE',  #19 ) ;
#149 = DIRECTION ( 'NONE',  ( -3.491481338843133355E-15, 1.224646799147353207E-16, -1.000000000000000000 ) ) ;
#150 = APPROVAL_STATUS ( 'not_yet_approved' ) ;
#151 = DATE_AND_TIME ( #193, #202 ) ;
#152 = PERSON_AND_ORGANIZATION ( #79, #71 ) ;
#153 = AXIS2_PLACEMENT_3D ( 'NONE', #114, #159, #103 ) ;
#154 = APPROVAL ( #150, 'UNSPECIFIED' ) ;
#155 = FACE_OUTER_BOUND ( 'NONE', #110, .T. ) ;
#156 = CC_DESIGN_APPROVAL ( #21, ( #27 ) ) ;
#157 = APPLICATION_CONTEXT ( 'configuration controlled 3d designs of mechanical parts and assemblies' ) ;
#158 = EDGE_LOOP ( 'NONE', ( #33 ) ) ;
#159 = DIRECTION ( 'NONE',  ( 3.491481338843133355E-15, -1.224646799147353207E-16, 1.000000000000000000 ) ) ;
#160 = CARTESIAN_POINT ( 'NONE',  ( 1.824254005033808528E-14, 1.499999999999995559, 5.224871130596552504 ) ) ;
#161 = ADVANCED_FACE ( 'NONE', ( #115 ), #175, .F. ) ;
#162 = CARTESIAN_POINT ( 'NONE',  ( 1.824254005033808843E-14, 3.021235536399782576E-15, 5.224871130596553392 ) ) ;
#163 = APPROVAL_PERSON_ORGANIZATION ( #142, #21, #76 ) ;
#164 = DIRECTION ( 'NONE',  ( 0.0000000000000000000, 1.000000000000000000, 0.0000000000000000000 ) ) ;
#165 = CARTESIAN_POINT ( 'NONE',  ( 1.182959891489476395E-32, 0.1000000000000000611, 3.388131789017201356E-18 ) ) ;
#166 = CALENDAR_DATE ( 2021, 25, 11 ) ;
#167 = DIRECTION ( 'NONE',  ( 0.0000000000000000000, 0.0000000000000000000, 1.000000000000000000 ) ) ;
#168 = CC_DESIGN_PERSON_AND_ORGANIZATION_ASSIGNMENT ( #7, #72, ( #183 ) ) ;
#169 = APPROVAL_ROLE ( '' ) ;
#170 = AXIS2_PLACEMENT_3D ( 'NONE', #51, #83, #37 ) ;
#171 = AXIS2_PLACEMENT_3D ( 'NONE', #191, #137, #40 ) ;
#172 = DIRECTION ( 'NONE',  ( -3.491481338843133355E-15, 1.224646799147353207E-16, -1.000000000000000000 ) ) ;
#173 = EDGE_LOOP ( 'NONE', ( #97 ) ) ;
#174 = EDGE_LOOP ( 'NONE', ( #203 ) ) ;
#175 = PLANE ( 'NONE',  #130 ) ;
#176 = DIRECTION ( 'NONE',  ( -4.275831445896958607E-31, -1.000000000000000000, -1.224646799147353207E-16 ) ) ;
#177 = FACE_BOUND ( 'NONE', #65, .T. ) ;
#178 = CLOSED_SHELL ( 'NONE', ( #161, #48, #8, #194 ) ) ;
#179 = CARTESIAN_POINT ( 'NONE',  ( 1.824254005033808528E-14, 1.499999999999995559, 5.224871130596552504 ) ) ;
#180 = PERSON_AND_ORGANIZATION ( #79, #71 ) ;
#181 = PERSON_AND_ORGANIZATION_ROLE ( 'creator' ) ;
#182 = PERSON_AND_ORGANIZATION_ROLE ( 'classification_officer' ) ;
#183 = PRODUCT_DEFINITION_FORMATION_WITH_SPECIFIED_SOURCE ( 'ANY', '', #62, .NOT_KNOWN. ) ;
#184 = CARTESIAN_POINT ( 'NONE',  ( 1.326762908760390423E-13, -4.653657836759941941E-15, 38.00000000000000000 ) ) ;
#185 = APPROVAL_PERSON_ORGANIZATION ( #59, #154, #73 ) ;
#186 = CC_DESIGN_PERSON_AND_ORGANIZATION_ASSIGNMENT ( #141, #181, ( #183 ) ) ;
#187 = CARTESIAN_POINT ( 'NONE',  ( 1.316288464743861212E-13, -4.616918432785521081E-15, 37.69999999999999574 ) ) ;
#188 = CC_DESIGN_PERSON_AND_ORGANIZATION_ASSIGNMENT ( #28, #192, ( #27 ) ) ;
#189 = CARTESIAN_POINT ( 'NONE',  ( 1.824254005033808528E-14, -6.398621706042480395E-16, 5.224871130596552504 ) ) ;
#190 = DIRECTION ( 'NONE',  ( 0.0000000000000000000, 1.000000000000000000, 0.0000000000000000000 ) ) ;
#191 = CARTESIAN_POINT ( 'NONE',  ( 1.824254005033808528E-14, -6.398621706042480395E-16, 5.224871130596552504 ) ) ;
#192 = PERSON_AND_ORGANIZATION_ROLE ( 'creator' ) ;
#193 = CALENDAR_DATE ( 2021, 25, 11 ) ;
#194 = ADVANCED_FACE ( 'NONE', ( #36 ), #100, .F. ) ;
#195 = COORDINATED_UNIVERSAL_TIME_OFFSET ( 1, 0, .AHEAD. ) ;
#196 = DESIGN_CONTEXT ( 'detailed design', #121, 'design' ) ;
#197 =( GEOMETRIC_REPRESENTATION_CONTEXT ( 3 ) GLOBAL_UNCERTAINTY_ASSIGNED_CONTEXT ( ( #54 ) ) GLOBAL_UNIT_ASSIGNED_CONTEXT ( ( #84, #66, #69 ) ) REPRESENTATION_CONTEXT ( 'NONE', 'WORKASPACE' ) );
#198 = APPROVAL_DATE_TIME ( #151, #21 ) ;
#199 = SHAPE_DEFINITION_REPRESENTATION ( #91, #35 ) ;
#200 = CYLINDRICAL_SURFACE ( 'NONE', #82, 1.499999999999998224 ) ;
#201 = ADVANCED_FACE ( 'NONE', ( #86 ), #148, .F. ) ;
#202 = LOCAL_TIME ( 14, 47, 8.000000000000000000, #10 ) ;
#203 = ORIENTED_EDGE ( 'NONE', *, *, #61, .T. ) ;
ENDSEC;
END-ISO-10303-21;
