ISO-10303-21;
HEADER;
FILE_DESCRIPTION (( 'STEP AP203' ),
    '1' );
FILE_NAME ('961963.step',
    '2021-11-29T14:58:48',
    ( '' ),
    ( '' ),
    'SwSTEP 2.0',
    'SolidWorks 2019',
    '' );
FILE_SCHEMA (( 'CONFIG_CONTROL_DESIGN' ));
ENDSEC;

DATA;
#1 = FACE_OUTER_BOUND ( 'NONE', #249, .T. ) ;
#2 = APPROVAL ( #106, 'UNSPECIFIED' ) ;
#3 = AXIS2_PLACEMENT_3D ( 'NONE', #165, #263, #114 ) ;
#4 = CARTESIAN_POINT ( 'NONE',  ( -9.463679131915806782E-32, 0.5241624327025946606, -2.710505431213761085E-17 ) ) ;
#5 = ADVANCED_BREP_SHAPE_REPRESENTATION ( '961963', ( #32, #235, #170 ), #153 ) ;
#6 = EDGE_LOOP ( 'NONE', ( #95 ) ) ;
#7 = EDGE_CURVE ( 'NONE', #256, #256, #224, .T. ) ;
#8 = CIRCLE ( 'NONE', #20, 0.6684999999999990949 ) ;
#9 = DATE_AND_TIME ( #266, #29 ) ;
#10 = PLANE ( 'NONE',  #246 ) ;
#11 = ADVANCED_FACE ( 'NONE', ( #128 ), #18, .F. ) ;
#12 = CALENDAR_DATE ( 2021, 29, 11 ) ;
#13 = DIRECTION ( 'NONE',  ( 2.880972242912847396E-31, 1.000000000000000000, 1.621843189955880202E-16 ) ) ;
#14 =( NAMED_UNIT ( * ) PLANE_ANGLE_UNIT ( ) SI_UNIT ( $, .RADIAN. ) );
#15 = ORIENTED_EDGE ( 'NONE', *, *, #81, .T. ) ;
#16 = CONICAL_SURFACE ( 'NONE', #43, 1.499999999999997558, 0.1745329251994259812 ) ;
#17 = CARTESIAN_POINT ( 'NONE',  ( -3.187598125699183023E-31, 1.118058916190298624E-32, -9.129643885638984899E-17 ) ) ;
#18 = PLANE ( 'NONE',  #90 ) ;
#19 = CARTESIAN_POINT ( 'NONE',  ( 4.538925740496073993E-14, -1.592040838891558898E-15, 13.00000000000000178 ) ) ;
#20 = AXIS2_PLACEMENT_3D ( 'NONE', #123, #215, #13 ) ;
#21 = APPROVAL_STATUS ( 'not_yet_approved' ) ;
#22 = DIRECTION ( 'NONE',  ( -2.880972242912847396E-31, -1.000000000000000000, -1.621843189955880202E-16 ) ) ;
#23 = CIRCLE ( 'NONE', #55, 1.200000000000003286 ) ;
#24 = FACE_OUTER_BOUND ( 'NONE', #210, .T. ) ;
#25 = PERSON_AND_ORGANIZATION ( #167, #40 ) ;
#26 = DIRECTION ( 'NONE',  ( 0.0000000000000000000, 1.000000000000000000, 0.0000000000000000000 ) ) ;
#27 = EDGE_CURVE ( 'NONE', #248, #248, #151, .T. ) ;
#28 = CALENDAR_DATE ( 2021, 29, 11 ) ;
#29 = LOCAL_TIME ( 15, 58, 48.00000000000000000, #230 ) ;
#30 = DIRECTION ( 'NONE',  ( -3.491481338843133355E-15, 1.224646799147352961E-16, -1.000000000000000000 ) ) ;
#31 = ADVANCED_FACE ( 'NONE', ( #217 ), #100, .T. ) ;
#32 = MANIFOLD_SOLID_BREP ( 'Corps-Déplacer/Copier1[1]', #107 ) ;
#33 = PERSON_AND_ORGANIZATION ( #167, #40 ) ;
#34 = EDGE_LOOP ( 'NONE', ( #212 ) ) ;
#35 = FACE_OUTER_BOUND ( 'NONE', #105, .T. ) ;
#36 = FACE_BOUND ( 'NONE', #292, .T. ) ;
#37 = CARTESIAN_POINT ( 'NONE',  ( 1.326762908760390423E-13, -4.653657836759941152E-15, 38.00000000000000000 ) ) ;
#38 = CARTESIAN_POINT ( 'NONE',  ( 2.094888803305880013E-14, -7.347880794884118750E-16, 6.000000000000000000 ) ) ;
#39 = APPROVAL_DATE_TIME ( #149, #2 ) ;
#40 = ORGANIZATION ( 'UNSPECIFIED', 'UNSPECIFIED', '' ) ;
#41 = APPLICATION_PROTOCOL_DEFINITION ( 'international standard', 'config_control_design', 1994, #255 ) ;
#42 = COORDINATED_UNIVERSAL_TIME_OFFSET ( 1, 0, .AHEAD. ) ;
#43 = AXIS2_PLACEMENT_3D ( 'NONE', #159, #208, #211 ) ;
#44 = APPLICATION_PROTOCOL_DEFINITION ( 'international standard', 'config_control_design', 1994, #205 ) ;
#45 = CC_DESIGN_DATE_AND_TIME_ASSIGNMENT ( #115, #48, ( #174 ) ) ;
#46 = COORDINATED_UNIVERSAL_TIME_OFFSET ( 1, 0, .AHEAD. ) ;
#47 = FACE_OUTER_BOUND ( 'NONE', #285, .T. ) ;
#48 = DATE_TIME_ROLE ( 'creation_date' ) ;
#49 = DIRECTION ( 'NONE',  ( -3.491481338843133355E-15, 1.224646799147352961E-16, -1.000000000000000000 ) ) ;
#50 = ORIENTED_EDGE ( 'NONE', *, *, #7, .F. ) ;
#51 = CC_DESIGN_APPROVAL ( #300, ( #101 ) ) ;
#52 = ORIENTED_EDGE ( 'NONE', *, *, #102, .T. ) ;
#53 = DATE_TIME_ROLE ( 'classification_date' ) ;
#54 = PERSON_AND_ORGANIZATION ( #167, #40 ) ;
#55 = AXIS2_PLACEMENT_3D ( 'NONE', #37, #127, #297 ) ;
#56 = ADVANCED_FACE ( 'NONE', ( #148, #270 ), #59, .T. ) ;
#57 = CARTESIAN_POINT ( 'NONE',  ( 4.660183614865709118E-14, -1.634572375883072414E-15, 13.34729635533384595 ) ) ;
#58 = DIRECTION ( 'NONE',  ( -3.491481338843133355E-15, 1.224646799147352961E-16, -1.000000000000000000 ) ) ;
#59 = CYLINDRICAL_SURFACE ( 'NONE', #176, 0.5999999999999993117 ) ;
#60 = EDGE_LOOP ( 'NONE', ( #296 ) ) ;
#61 = COORDINATED_UNIVERSAL_TIME_OFFSET ( 1, 0, .AHEAD. ) ;
#62 = DIRECTION ( 'NONE',  ( 0.0000000000000000000, 1.000000000000000000, 0.0000000000000000000 ) ) ;
#63 = UNCERTAINTY_MEASURE_WITH_UNIT (LENGTH_MEASURE( 1.000000000000000082E-05 ), #140, 'distance_accuracy_value', 'NONE');
#64 = CONICAL_SURFACE ( 'NONE', #112, 0.6684999999999990949, 0.5235987755982925984 ) ;
#65 = PERSON_AND_ORGANIZATION_ROLE ( 'design_owner' ) ;
#66 = CARTESIAN_POINT ( 'NONE',  ( 2.094888803305880013E-14, 0.6684999999999990949, 6.000000000000000000 ) ) ;
#67 = DIRECTION ( 'NONE',  ( 1.000000000000000000, 0.0000000000000000000, 0.0000000000000000000 ) ) ;
#68 = VERTEX_POINT ( 'NONE', #161 ) ;
#69 = CIRCLE ( 'NONE', #132, 0.5999999999999988676 ) ;
#70 = CARTESIAN_POINT ( 'NONE',  ( 2.136313651352882580E-14, 0.5999999999999980904, 6.118645480318471996 ) ) ;
#71 = ORIENTED_EDGE ( 'NONE', *, *, #27, .T. ) ;
#72 = FACE_OUTER_BOUND ( 'NONE', #34, .T. ) ;
#73 = EDGE_LOOP ( 'NONE', ( #15 ) ) ;
#74 = DIRECTION ( 'NONE',  ( 4.275831445896957731E-31, 1.000000000000000000, 1.224646799147352961E-16 ) ) ;
#75 = APPROVAL_DATE_TIME ( #290, #300 ) ;
#76 = EDGE_LOOP ( 'NONE', ( #125 ) ) ;
#77 = PERSON_AND_ORGANIZATION ( #167, #40 ) ;
#78 = DIRECTION ( 'NONE',  ( 3.491481338843133355E-15, -1.224646799147352961E-16, 1.000000000000000000 ) ) ;
#79 = APPROVAL_PERSON_ORGANIZATION ( #237, #267, #111 ) ;
#80 = DIRECTION ( 'NONE',  ( 4.275831445896956855E-31, 1.000000000000000000, 1.224646799147352961E-16 ) ) ;
#81 = EDGE_CURVE ( 'NONE', #126, #126, #8, .T. ) ;
#82 = CARTESIAN_POINT ( 'NONE',  ( 2.094888803305880013E-14, -7.347880794884118750E-16, 6.000000000000000000 ) ) ;
#83 = ORIENTED_EDGE ( 'NONE', *, *, #27, .F. ) ;
#84 = PERSON_AND_ORGANIZATION ( #167, #40 ) ;
#85 = FACE_OUTER_BOUND ( 'NONE', #199, .T. ) ;
#86 = CC_DESIGN_SECURITY_CLASSIFICATION ( #122, ( #101 ) ) ;
#87 = CARTESIAN_POINT ( 'NONE',  ( 8.728703347107831416E-16, -3.061616997868381785E-17, 0.2499999999999999445 ) ) ;
#88 = FACE_OUTER_BOUND ( 'NONE', #120, .T. ) ;
#89 = CARTESIAN_POINT ( 'NONE',  ( 1.326762908760390423E-13, 1.199999999999998845, 38.00000000000000000 ) ) ;
#90 = AXIS2_PLACEMENT_3D ( 'NONE', #191, #145, #175 ) ;
#91 = CIRCLE ( 'NONE', #226, 0.6684999999999998721 ) ;
#92 = DIRECTION ( 'NONE',  ( 4.275831445896957731E-31, 1.000000000000000000, 1.224646799147353207E-16 ) ) ;
#93 = ORIENTED_EDGE ( 'NONE', *, *, #156, .T. ) ;
#94 = EDGE_CURVE ( 'NONE', #303, #303, #283, .T. ) ;
#95 = ORIENTED_EDGE ( 'NONE', *, *, #156, .F. ) ;
#96 = AXIS2_PLACEMENT_3D ( 'NONE', #116, #49, #240 ) ;
#97 = ADVANCED_FACE ( 'NONE', ( #168 ), #10, .F. ) ;
#98 = CARTESIAN_POINT ( 'NONE',  ( 2.094888803305880013E-14, 5.012947073547244466E-33, 6.000000000000000000 ) ) ;
#99 = PLANE ( 'NONE',  #195 ) ;
#100 = PLANE ( 'NONE',  #274 ) ;
#101 = PRODUCT_DEFINITION_FORMATION_WITH_SPECIFIED_SOURCE ( 'ANY', '', #272, .NOT_KNOWN. ) ;
#102 = EDGE_CURVE ( 'NONE', #279, #279, #136, .T. ) ;
#103 = DIRECTION ( 'NONE',  ( 4.275831445896957731E-31, 1.000000000000000000, 1.224646799147352961E-16 ) ) ;
#104 = APPROVAL_ROLE ( '' ) ;
#105 = EDGE_LOOP ( 'NONE', ( #52 ) ) ;
#106 = APPROVAL_STATUS ( 'not_yet_approved' ) ;
#107 = CLOSED_SHELL ( 'NONE', ( #97, #179, #56, #259, #233, #169, #289, #11 ) ) ;
#108 = CONICAL_SURFACE ( 'NONE', #200, 0.5999999999999988676, 0.5235987755982900449 ) ;
#109 = FACE_OUTER_BOUND ( 'NONE', #213, .T. ) ;
#110 = CC_DESIGN_DATE_AND_TIME_ASSIGNMENT ( #9, #53, ( #122 ) ) ;
#111 = APPROVAL_ROLE ( '' ) ;
#112 = AXIS2_PLACEMENT_3D ( 'NONE', #87, #133, #22 ) ;
#113 = CARTESIAN_POINT ( 'NONE',  ( 4.660183614865709118E-14, 0.6303844939755801624, 13.34729635533384595 ) ) ;
#114 = DIRECTION ( 'NONE',  ( 0.0000000000000000000, 1.000000000000000000, 0.0000000000000000000 ) ) ;
#115 = DATE_AND_TIME ( #28, #117 ) ;
#116 = CARTESIAN_POINT ( 'NONE',  ( 0.0000000000000000000, 0.0000000000000000000, 0.0000000000000000000 ) ) ;
#117 = LOCAL_TIME ( 15, 58, 48.00000000000000000, #46 ) ;
#118 = EDGE_LOOP ( 'NONE', ( #181 ) ) ;
#119 = DIRECTION ( 'NONE',  ( -3.491481338843133355E-15, 1.224646799147352961E-16, -1.000000000000000000 ) ) ;
#120 = EDGE_LOOP ( 'NONE', ( #241 ) ) ;
#121 = PRODUCT_DEFINITION_SHAPE ( 'NONE', 'NONE',  #174 ) ;
#122 = SECURITY_CLASSIFICATION ( '', '', #129 ) ;
#123 = CARTESIAN_POINT ( 'NONE',  ( 8.728703347107831416E-16, -3.061616997868381785E-17, 0.2499999999999999445 ) ) ;
#124 = CALENDAR_DATE ( 2021, 29, 11 ) ;
#125 = ORIENTED_EDGE ( 'NONE', *, *, #265, .F. ) ;
#126 = VERTEX_POINT ( 'NONE', #302 ) ;
#127 = DIRECTION ( 'NONE',  ( -3.491481338843133355E-15, 1.224646799147352961E-16, -1.000000000000000000 ) ) ;
#128 = FACE_OUTER_BOUND ( 'NONE', #6, .T. ) ;
#129 = SECURITY_CLASSIFICATION_LEVEL ( 'unclassified' ) ;
#130 = ORIENTED_EDGE ( 'NONE', *, *, #102, .F. ) ;
#131 = DESIGN_CONTEXT ( 'detailed design', #255, 'design' ) ;
#132 = AXIS2_PLACEMENT_3D ( 'NONE', #183, #284, #26 ) ;
#133 = DIRECTION ( 'NONE',  ( 3.491481338843133355E-15, -1.224646799147352961E-16, 1.000000000000000000 ) ) ;
#134 = DIRECTION ( 'NONE',  ( -3.491481338843133355E-15, 1.224646799147352961E-16, -1.000000000000000000 ) ) ;
#135 = CALENDAR_DATE ( 2021, 29, 11 ) ;
#136 = CIRCLE ( 'NONE', #251, 0.5241624327025946606 ) ;
#137 = AXIS2_PLACEMENT_3D ( 'NONE', #158, #134, #92 ) ;
#138 = CARTESIAN_POINT ( 'NONE',  ( 1.316288464743861212E-13, 1.499999999999998668, 37.69999999999999574 ) ) ;
#139 = ORIENTED_EDGE ( 'NONE', *, *, #157, .T. ) ;
#140 =( LENGTH_UNIT ( ) NAMED_UNIT ( * ) SI_UNIT ( .MILLI., .METRE. ) );
#141 = LOCAL_TIME ( 15, 58, 48.00000000000000000, #42 ) ;
#142 = APPROVAL_STATUS ( 'not_yet_approved' ) ;
#143 = CIRCLE ( 'NONE', #166, 1.500000000000003331 ) ;
#144 = PERSON_AND_ORGANIZATION_ROLE ( 'creator' ) ;
#145 = DIRECTION ( 'NONE',  ( -3.491481338843133355E-15, 1.224646799147352961E-16, -1.000000000000000000 ) ) ;
#146 = CARTESIAN_POINT ( 'NONE',  ( 6.382124465354757181E-14, 1.499999999999995559, 18.27913096470797072 ) ) ;
#147 = CARTESIAN_POINT ( 'NONE',  ( 0.0000000000000000000, 0.0000000000000000000, 0.0000000000000000000 ) ) ;
#148 = FACE_OUTER_BOUND ( 'NONE', #76, .T. ) ;
#149 = DATE_AND_TIME ( #124, #219 ) ;
#150 = DIRECTION ( 'NONE',  ( -3.491481338843133355E-15, 1.224646799147352961E-16, -1.000000000000000000 ) ) ;
#151 = CIRCLE ( 'NONE', #278, 0.6303844939755818277 ) ;
#152 = ADVANCED_FACE ( 'NONE', ( #35 ), #99, .F. ) ;
#153 =( GEOMETRIC_REPRESENTATION_CONTEXT ( 3 ) GLOBAL_UNCERTAINTY_ASSIGNED_CONTEXT ( ( #63 ) ) GLOBAL_UNIT_ASSIGNED_CONTEXT ( ( #140, #14, #194 ) ) REPRESENTATION_CONTEXT ( 'NONE', 'WORKASPACE' ) );
#154 = CARTESIAN_POINT ( 'NONE',  ( 6.382124465354757181E-14, -2.238547922712488005E-15, 18.27913096470797072 ) ) ;
#155 = LOCAL_TIME ( 15, 58, 48.00000000000000000, #268 ) ;
#156 = EDGE_CURVE ( 'NONE', #234, #234, #23, .T. ) ;
#157 = EDGE_CURVE ( 'NONE', #260, #260, #91, .T. ) ;
#158 = CARTESIAN_POINT ( 'NONE',  ( 0.0000000000000000000, 0.0000000000000000000, 0.0000000000000000000 ) ) ;
#159 = CARTESIAN_POINT ( 'NONE',  ( 6.382124465354757181E-14, -2.238547922712488005E-15, 18.27913096470797072 ) ) ;
#160 = CC_DESIGN_APPROVAL ( #2, ( #122 ) ) ;
#161 = CARTESIAN_POINT ( 'NONE',  ( 4.538925740496073993E-14, 0.5999999999999980904, 13.00000000000000178 ) ) ;
#162 = MECHANICAL_CONTEXT ( 'NONE', #205, 'mechanical' ) ;
#163 = EDGE_LOOP ( 'NONE', ( #130 ) ) ;
#164 = CC_DESIGN_PERSON_AND_ORGANIZATION_ASSIGNMENT ( #25, #65, ( #272 ) ) ;
#165 = CARTESIAN_POINT ( 'NONE',  ( 1.326762908760390423E-13, -4.653657836759941152E-15, 38.00000000000000000 ) ) ;
#166 = AXIS2_PLACEMENT_3D ( 'NONE', #178, #30, #238 ) ;
#167 = PERSON ( 'UNSPECIFIED', 'UNSPECIFIED', 'UNSPECIFIED', ('UNSPECIFIED'), ('UNSPECIFIED'), ('UNSPECIFIED') ) ;
#168 = FACE_OUTER_BOUND ( 'NONE', #118, .T. ) ;
#169 = ADVANCED_FACE ( 'NONE', ( #85, #88 ), #225, .T. ) ;
#170 = AXIS2_PLACEMENT_3D ( 'NONE', #209, #228, #67 ) ;
#171 = ORIENTED_EDGE ( 'NONE', *, *, #157, .F. ) ;
#172 = DIRECTION ( 'NONE',  ( 3.491481338843133355E-15, -1.224646799147352961E-16, 1.000000000000000000 ) ) ;
#173 = DIRECTION ( 'NONE',  ( 0.0000000000000000000, 1.000000000000000000, 0.0000000000000000000 ) ) ;
#174 = PRODUCT_DEFINITION ( 'UNKNOWN', '', #101, #131 ) ;
#175 = DIRECTION ( 'NONE',  ( 4.275831445896957731E-31, 1.000000000000000000, 1.224646799147352961E-16 ) ) ;
#176 = AXIS2_PLACEMENT_3D ( 'NONE', #147, #220, #80 ) ;
#177 = CC_DESIGN_APPROVAL ( #267, ( #174 ) ) ;
#178 = CARTESIAN_POINT ( 'NONE',  ( 1.316288464743861212E-13, -4.616918432785520292E-15, 37.69999999999999574 ) ) ;
#179 = ADVANCED_FACE ( 'NONE', ( #185, #264 ), #108, .T. ) ;
#180 = CARTESIAN_POINT ( 'NONE',  ( 2.094888803305880013E-14, 0.6684999999999990949, 6.000000000000000000 ) ) ;
#181 = ORIENTED_EDGE ( 'NONE', *, *, #94, .T. ) ;
#182 = TOROIDAL_SURFACE ( 'NONE', #239, 2.600000000000000089, 2.000000000000000000 ) ;
#183 = CARTESIAN_POINT ( 'NONE',  ( 2.136313651352882580E-14, -7.493179602589434821E-16, 6.118645480318471996 ) ) ;
#184 = ORIENTED_EDGE ( 'NONE', *, *, #265, .T. ) ;
#185 = FACE_OUTER_BOUND ( 'NONE', #60, .T. ) ;
#186 = EDGE_LOOP ( 'NONE', ( #93 ) ) ;
#187 = ADVANCED_FACE ( 'NONE', ( #203, #301 ), #64, .T. ) ;
#188 = ORIENTED_EDGE ( 'NONE', *, *, #81, .F. ) ;
#189 = CIRCLE ( 'NONE', #232, 0.5999999999999997558 ) ;
#190 = APPROVAL_ROLE ( '' ) ;
#191 = CARTESIAN_POINT ( 'NONE',  ( 1.326762908760390423E-13, 8.998558695971099120E-33, 38.00000000000000000 ) ) ;
#192 = CARTESIAN_POINT ( 'NONE',  ( -1.593799062849591512E-31, 5.590294580951493118E-33, -4.564821942819492449E-17 ) ) ;
#193 = CC_DESIGN_PERSON_AND_ORGANIZATION_ASSIGNMENT ( #84, #227, ( #122 ) ) ;
#194 =( NAMED_UNIT ( * ) SI_UNIT ( $, .STERADIAN. ) SOLID_ANGLE_UNIT ( ) );
#195 = AXIS2_PLACEMENT_3D ( 'NONE', #192, #78, #197 ) ;
#196 = CARTESIAN_POINT ( 'NONE',  ( 2.094888803305880013E-14, 5.012947073547244466E-33, 6.000000000000000000 ) ) ;
#197 = DIRECTION ( 'NONE',  ( -4.275831445896957731E-31, -1.000000000000000000, -1.224646799147352961E-16 ) ) ;
#198 = SHAPE_DEFINITION_REPRESENTATION ( #121, #5 ) ;
#199 = EDGE_LOOP ( 'NONE', ( #50 ) ) ;
#200 = AXIS2_PLACEMENT_3D ( 'NONE', #242, #281, #229 ) ;
#201 = CYLINDRICAL_SURFACE ( 'NONE', #96, 0.6684999999999994280 ) ;
#202 = PRODUCT_RELATED_PRODUCT_CATEGORY ( 'detail', '', ( #272 ) ) ;
#203 = FACE_BOUND ( 'NONE', #163, .T. ) ;
#204 = EDGE_CURVE ( 'NONE', #68, #68, #189, .T. ) ;
#205 = APPLICATION_CONTEXT ( 'configuration controlled 3d designs of mechanical parts and assemblies' ) ;
#206 = APPROVAL_DATE_TIME ( #231, #267 ) ;
#207 = PERSON_AND_ORGANIZATION_ROLE ( 'creator' ) ;
#208 = DIRECTION ( 'NONE',  ( 3.491481338843133355E-15, -1.224646799147352961E-16, 1.000000000000000000 ) ) ;
#209 = CARTESIAN_POINT ( 'NONE',  ( 0.0000000000000000000, 0.0000000000000000000, 0.0000000000000000000 ) ) ;
#210 = EDGE_LOOP ( 'NONE', ( #253 ) ) ;
#211 = DIRECTION ( 'NONE',  ( 0.0000000000000000000, -1.000000000000000000, 0.0000000000000000000 ) ) ;
#212 = ORIENTED_EDGE ( 'NONE', *, *, #7, .T. ) ;
#213 = EDGE_LOOP ( 'NONE', ( #139 ) ) ;
#214 = CONICAL_SURFACE ( 'NONE', #3, 1.200000000000003286, 0.7853981633974453924 ) ;
#215 = DIRECTION ( 'NONE',  ( -3.491481338843133355E-15, 1.224646799147352961E-16, -1.000000000000000000 ) ) ;
#216 = CC_DESIGN_PERSON_AND_ORGANIZATION_ASSIGNMENT ( #77, #295, ( #101 ) ) ;
#217 = FACE_OUTER_BOUND ( 'NONE', #282, .T. ) ;
#218 = EDGE_LOOP ( 'NONE', ( #286 ) ) ;
#219 = LOCAL_TIME ( 15, 58, 48.00000000000000000, #61 ) ;
#220 = DIRECTION ( 'NONE',  ( -3.491481338843133355E-15, 1.224646799147352961E-16, -1.000000000000000000 ) ) ;
#221 = PERSON_AND_ORGANIZATION ( #167, #40 ) ;
#222 = DIRECTION ( 'NONE',  ( 0.0000000000000000000, 1.000000000000000000, 0.0000000000000000000 ) ) ;
#223 = ADVANCED_FACE ( 'NONE', ( #254, #109 ), #201, .T. ) ;
#224 = CIRCLE ( 'NONE', #288, 1.499999999999997558 ) ;
#225 = CYLINDRICAL_SURFACE ( 'NONE', #137, 1.500000000000000444 ) ;
#226 = AXIS2_PLACEMENT_3D ( 'NONE', #82, #273, #252 ) ;
#227 = PERSON_AND_ORGANIZATION_ROLE ( 'classification_officer' ) ;
#228 = DIRECTION ( 'NONE',  ( 0.0000000000000000000, 0.0000000000000000000, 1.000000000000000000 ) ) ;
#229 = DIRECTION ( 'NONE',  ( 0.0000000000000000000, 1.000000000000000000, 0.0000000000000000000 ) ) ;
#230 = COORDINATED_UNIVERSAL_TIME_OFFSET ( 1, 0, .AHEAD. ) ;
#231 = DATE_AND_TIME ( #135, #141 ) ;
#232 = AXIS2_PLACEMENT_3D ( 'NONE', #19, #276, #62 ) ;
#233 = ADVANCED_FACE ( 'NONE', ( #36, #72 ), #16, .T. ) ;
#234 = VERTEX_POINT ( 'NONE', #89 ) ;
#235 = MANIFOLD_SOLID_BREP ( 'Corps-Déplacer/Copier1[2]', #293 ) ;
#236 = VERTEX_POINT ( 'NONE', #70 ) ;
#237 = PERSON_AND_ORGANIZATION ( #167, #40 ) ;
#238 = DIRECTION ( 'NONE',  ( 0.0000000000000000000, 1.000000000000000000, 0.0000000000000000000 ) ) ;
#239 = AXIS2_PLACEMENT_3D ( 'NONE', #287, #119, #74 ) ;
#240 = DIRECTION ( 'NONE',  ( 4.275831445896957731E-31, 1.000000000000000000, 1.224646799147352961E-16 ) ) ;
#241 = ORIENTED_EDGE ( 'NONE', *, *, #244, .T. ) ;
#242 = CARTESIAN_POINT ( 'NONE',  ( 2.136313651352882580E-14, -7.493179602589434821E-16, 6.118645480318471996 ) ) ;
#243 = ORIENTED_EDGE ( 'NONE', *, *, #244, .F. ) ;
#244 = EDGE_CURVE ( 'NONE', #257, #257, #143, .T. ) ;
#245 = CC_DESIGN_PERSON_AND_ORGANIZATION_ASSIGNMENT ( #54, #144, ( #101 ) ) ;
#246 = AXIS2_PLACEMENT_3D ( 'NONE', #98, #172, #269 ) ;
#247 = DIRECTION ( 'NONE',  ( 0.0000000000000000000, 1.000000000000000000, 0.0000000000000000000 ) ) ;
#248 = VERTEX_POINT ( 'NONE', #113 ) ;
#249 = EDGE_LOOP ( 'NONE', ( #71 ) ) ;
#250 = DIRECTION ( 'NONE',  ( -3.491481338843133355E-15, 1.224646799147352961E-16, -1.000000000000000000 ) ) ;
#251 = AXIS2_PLACEMENT_3D ( 'NONE', #17, #150, #103 ) ;
#252 = DIRECTION ( 'NONE',  ( 0.0000000000000000000, 1.000000000000000000, 0.0000000000000000000 ) ) ;
#253 = ORIENTED_EDGE ( 'NONE', *, *, #204, .F. ) ;
#254 = FACE_OUTER_BOUND ( 'NONE', #261, .T. ) ;
#255 = APPLICATION_CONTEXT ( 'configuration controlled 3d designs of mechanical parts and assemblies' ) ;
#256 = VERTEX_POINT ( 'NONE', #146 ) ;
#257 = VERTEX_POINT ( 'NONE', #138 ) ;
#258 = PERSON_AND_ORGANIZATION ( #167, #40 ) ;
#259 = ADVANCED_FACE ( 'NONE', ( #24, #1 ), #182, .F. ) ;
#260 = VERTEX_POINT ( 'NONE', #180 ) ;
#261 = EDGE_LOOP ( 'NONE', ( #188 ) ) ;
#262 = AXIS2_PLACEMENT_3D ( 'NONE', #38, #58, #247 ) ;
#263 = DIRECTION ( 'NONE',  ( -3.491481338843133355E-15, 1.224646799147352961E-16, -1.000000000000000000 ) ) ;
#264 = FACE_BOUND ( 'NONE', #298, .T. ) ;
#265 = EDGE_CURVE ( 'NONE', #236, #236, #69, .T. ) ;
#266 = CALENDAR_DATE ( 2021, 29, 11 ) ;
#267 = APPROVAL ( #21, 'UNSPECIFIED' ) ;
#268 = COORDINATED_UNIVERSAL_TIME_OFFSET ( 1, 0, .AHEAD. ) ;
#269 = DIRECTION ( 'NONE',  ( -4.275831445896957731E-31, -1.000000000000000000, -1.224646799147352961E-16 ) ) ;
#270 = FACE_OUTER_BOUND ( 'NONE', #218, .T. ) ;
#271 = DIRECTION ( 'NONE',  ( -4.275831445896957731E-31, -1.000000000000000000, -1.224646799147352961E-16 ) ) ;
#272 = PRODUCT ( '961963', '961963', '', ( #162 ) ) ;
#273 = DIRECTION ( 'NONE',  ( -3.491481338843133355E-15, 1.224646799147352961E-16, -1.000000000000000000 ) ) ;
#274 = AXIS2_PLACEMENT_3D ( 'NONE', #196, #275, #271 ) ;
#275 = DIRECTION ( 'NONE',  ( 3.491481338843133355E-15, -1.224646799147352961E-16, 1.000000000000000000 ) ) ;
#276 = DIRECTION ( 'NONE',  ( -3.491481338843133355E-15, 1.224646799147352961E-16, -1.000000000000000000 ) ) ;
#277 = CC_DESIGN_PERSON_AND_ORGANIZATION_ASSIGNMENT ( #258, #207, ( #174 ) ) ;
#278 = AXIS2_PLACEMENT_3D ( 'NONE', #57, #250, #173 ) ;
#279 = VERTEX_POINT ( 'NONE', #4 ) ;
#280 = FACE_BOUND ( 'NONE', #186, .T. ) ;
#281 = DIRECTION ( 'NONE',  ( -3.491481338843133355E-15, 1.224646799147352961E-16, -1.000000000000000000 ) ) ;
#282 = EDGE_LOOP ( 'NONE', ( #171 ) ) ;
#283 = CIRCLE ( 'NONE', #262, 0.6684999999999998721 ) ;
#284 = DIRECTION ( 'NONE',  ( -3.491481338843133355E-15, 1.224646799147352961E-16, -1.000000000000000000 ) ) ;
#285 = EDGE_LOOP ( 'NONE', ( #243 ) ) ;
#286 = ORIENTED_EDGE ( 'NONE', *, *, #204, .T. ) ;
#287 = CARTESIAN_POINT ( 'NONE',  ( 4.538925740496073362E-14, -1.734723475976807094E-15, 13.00000000000000000 ) ) ;
#288 = AXIS2_PLACEMENT_3D ( 'NONE', #154, #291, #222 ) ;
#289 = ADVANCED_FACE ( 'NONE', ( #47, #280 ), #214, .T. ) ;
#290 = DATE_AND_TIME ( #12, #155 ) ;
#291 = DIRECTION ( 'NONE',  ( -3.491481338843133355E-15, 1.224646799147352961E-16, -1.000000000000000000 ) ) ;
#292 = EDGE_LOOP ( 'NONE', ( #83 ) ) ;
#293 = CLOSED_SHELL ( 'NONE', ( #152, #187, #223, #31 ) ) ;
#294 = APPROVAL_PERSON_ORGANIZATION ( #33, #300, #190 ) ;
#295 = PERSON_AND_ORGANIZATION_ROLE ( 'design_supplier' ) ;
#296 = ORIENTED_EDGE ( 'NONE', *, *, #94, .F. ) ;
#297 = DIRECTION ( 'NONE',  ( 0.0000000000000000000, 1.000000000000000000, 0.0000000000000000000 ) ) ;
#298 = EDGE_LOOP ( 'NONE', ( #184 ) ) ;
#299 = APPROVAL_PERSON_ORGANIZATION ( #221, #2, #104 ) ;
#300 = APPROVAL ( #142, 'UNSPECIFIED' ) ;
#301 = FACE_OUTER_BOUND ( 'NONE', #73, .T. ) ;
#302 = CARTESIAN_POINT ( 'NONE',  ( 8.728703347107833388E-16, 0.6684999999999990949, 0.2500000000000000555 ) ) ;
#303 = VERTEX_POINT ( 'NONE', #66 ) ;
ENDSEC;
END-ISO-10303-21;
