ISO-10303-21;
HEADER;
FILE_DESCRIPTION (( 'STEP AP203' ),
    '1' );
FILE_NAME ('961883.step',
    '2021-11-10T12:11:24',
    ( '' ),
    ( '' ),
    'SwSTEP 2.0',
    'SolidWorks 2019',
    '' );
FILE_SCHEMA (( 'CONFIG_CONTROL_DESIGN' ));
ENDSEC;

DATA;
#1 = EDGE_CURVE ( 'NONE', #242, #242, #44, .T. ) ;
#2 = CC_DESIGN_PERSON_AND_ORGANIZATION_ASSIGNMENT ( #136, #94, ( #111 ) ) ;
#3 = FACE_OUTER_BOUND ( 'NONE', #68, .T. ) ;
#4 = CARTESIAN_POINT ( 'NONE',  ( 4.371200298788407130E-14, -1.517883041479706208E-15, 12.51961524227066214 ) ) ;
#5 = CC_DESIGN_DATE_AND_TIME_ASSIGNMENT ( #106, #166, ( #138 ) ) ;
#6 = DIRECTION ( 'NONE',  ( 4.275831445896958607E-31, 1.000000000000000000, 1.224646799147353207E-16 ) ) ;
#7 = ORIENTED_EDGE ( 'NONE', *, *, #90, .T. ) ;
#8 = AXIS2_PLACEMENT_3D ( 'NONE', #132, #225, #118 ) ;
#9 = CLOSED_SHELL ( 'NONE', ( #216, #25, #78, #170, #62, #63 ) ) ;
#10 = ORIENTED_EDGE ( 'NONE', *, *, #1, .T. ) ;
#11 = PLANE ( 'NONE',  #140 ) ;
#12 = APPROVAL_STATUS ( 'not_yet_approved' ) ;
#13 = DIRECTION ( 'NONE',  ( 4.275831445896958607E-31, 1.000000000000000000, 1.224646799147353207E-16 ) ) ;
#14 = CALENDAR_DATE ( 2021, 10, 11 ) ;
#15 = FACE_OUTER_BOUND ( 'NONE', #48, .T. ) ;
#16 = VERTEX_POINT ( 'NONE', #133 ) ;
#17 = DIRECTION ( 'NONE',  ( -3.491481338843133355E-15, 1.224646799147353207E-16, -1.000000000000000000 ) ) ;
#18 = ADVANCED_BREP_SHAPE_REPRESENTATION ( '961883', ( #212, #55, #8 ), #101 ) ;
#19 = EDGE_CURVE ( 'NONE', #56, #56, #102, .T. ) ;
#20 = CC_DESIGN_SECURITY_CLASSIFICATION ( #49, ( #137 ) ) ;
#21 = AXIS2_PLACEMENT_3D ( 'NONE', #135, #41, #172 ) ;
#22 = APPLICATION_CONTEXT ( 'configuration controlled 3d designs of mechanical parts and assemblies' ) ;
#23 = EDGE_LOOP ( 'NONE', ( #7 ) ) ;
#24 = SHAPE_DEFINITION_REPRESENTATION ( #38, #18 ) ;
#25 = ADVANCED_FACE ( 'NONE', ( #232, #32 ), #126, .T. ) ;
#26 = APPROVAL_STATUS ( 'not_yet_approved' ) ;
#27 = EDGE_LOOP ( 'NONE', ( #83 ) ) ;
#28 = APPROVAL_ROLE ( '' ) ;
#29 = CARTESIAN_POINT ( 'NONE',  ( 4.371200298788407130E-14, -1.533210673300317923E-15, 12.51961524227066214 ) ) ;
#30 = ORIENTED_EDGE ( 'NONE', *, *, #130, .F. ) ;
#31 = DIRECTION ( 'NONE',  ( 3.491481338843133355E-15, -1.247135059052984700E-16, 1.000000000000000000 ) ) ;
#32 = FACE_BOUND ( 'NONE', #186, .T. ) ;
#33 = PERSON_AND_ORGANIZATION ( #182, #221 ) ;
#34 = FACE_OUTER_BOUND ( 'NONE', #85, .T. ) ;
#35 = CC_DESIGN_APPROVAL ( #209, ( #49 ) ) ;
#36 = CC_DESIGN_DATE_AND_TIME_ASSIGNMENT ( #210, #142, ( #49 ) ) ;
#37 = CYLINDRICAL_SURFACE ( 'NONE', #157, 0.9000000000000000222 ) ;
#38 = PRODUCT_DEFINITION_SHAPE ( 'NONE', 'NONE',  #138 ) ;
#39 = CARTESIAN_POINT ( 'NONE',  ( 1.326762908760390423E-13, 0.7999999999999949374, 38.00000000000000000 ) ) ;
#40 = VERTEX_POINT ( 'NONE', #222 ) ;
#41 = DIRECTION ( 'NONE',  ( 3.491481338843133355E-15, -1.224646799147353207E-16, 1.000000000000000000 ) ) ;
#42 = LOCAL_TIME ( 13, 11, 24.00000000000000000, #97 ) ;
#43 = CC_DESIGN_APPROVAL ( #77, ( #138 ) ) ;
#44 = CIRCLE ( 'NONE', #76, 0.9000000000000000222 ) ;
#45 = FACE_OUTER_BOUND ( 'NONE', #160, .T. ) ;
#46 = CC_DESIGN_PERSON_AND_ORGANIZATION_ASSIGNMENT ( #192, #224, ( #49 ) ) ;
#47 = CALENDAR_DATE ( 2021, 10, 11 ) ;
#48 = EDGE_LOOP ( 'NONE', ( #223 ) ) ;
#49 = SECURITY_CLASSIFICATION ( '', '', #96 ) ;
#50 = EDGE_LOOP ( 'NONE', ( #215 ) ) ;
#51 = DATE_AND_TIME ( #104, #227 ) ;
#52 = CIRCLE ( 'NONE', #188, 0.9999999999999993339 ) ;
#53 = AXIS2_PLACEMENT_3D ( 'NONE', #100, #177, #155 ) ;
#54 = CARTESIAN_POINT ( 'NONE',  ( 4.478451509770522644E-14, -1.599674563907077772E-15, 12.82679491924310788 ) ) ;
#55 = MANIFOLD_SOLID_BREP ( 'Corps-Déplacer/Copier1[2]', #116 ) ;
#56 = VERTEX_POINT ( 'NONE', #74 ) ;
#57 = FACE_OUTER_BOUND ( 'NONE', #93, .T. ) ;
#58 = APPLICATION_PROTOCOL_DEFINITION ( 'international standard', 'config_control_design', 1994, #124 ) ;
#59 = AXIS2_PLACEMENT_3D ( 'NONE', #54, #198, #103 ) ;
#60 = CYLINDRICAL_SURFACE ( 'NONE', #113, 0.9999999999999983347 ) ;
#61 = PLANE ( 'NONE',  #21 ) ;
#62 = ADVANCED_FACE ( 'NONE', ( #195 ), #61, .F. ) ;
#63 = ADVANCED_FACE ( 'NONE', ( #3, #141 ), #158, .F. ) ;
#64 = AXIS2_PLACEMENT_3D ( 'NONE', #105, #200, #143 ) ;
#65 = CARTESIAN_POINT ( 'NONE',  ( 4.371200298788407130E-14, -1.533210673300317923E-15, 12.51961524227066214 ) ) ;
#66 = PERSON_AND_ORGANIZATION_ROLE ( 'design_supplier' ) ;
#67 = DIRECTION ( 'NONE',  ( 3.491481338843133355E-15, -1.247135059052984700E-16, 1.000000000000000000 ) ) ;
#68 = EDGE_LOOP ( 'NONE', ( #208 ) ) ;
#69 = EDGE_LOOP ( 'NONE', ( #89 ) ) ;
#70 = CARTESIAN_POINT ( 'NONE',  ( 0.0000000000000000000, 0.0000000000000000000, 0.0000000000000000000 ) ) ;
#71 = PRODUCT_RELATED_PRODUCT_CATEGORY ( 'detail', '', ( #111 ) ) ;
#72 = VERTEX_POINT ( 'NONE', #219 ) ;
#73 = APPROVAL_STATUS ( 'not_yet_approved' ) ;
#74 = CARTESIAN_POINT ( 'NONE',  ( 4.458487332259483887E-14, -0.9669872981077812790, 12.76961524227065858 ) ) ;
#75 = CIRCLE ( 'NONE', #235, 0.9000000000000000222 ) ;
#76 = AXIS2_PLACEMENT_3D ( 'NONE', #65, #98, #234 ) ;
#77 = APPROVAL ( #73, 'UNSPECIFIED' ) ;
#78 = ADVANCED_FACE ( 'NONE', ( #45 ), #11, .F. ) ;
#79 = AXIS2_PLACEMENT_3D ( 'NONE', #231, #82, #122 ) ;
#80 = PERSON_AND_ORGANIZATION_ROLE ( 'creator' ) ;
#81 = EDGE_CURVE ( 'NONE', #203, #203, #95, .T. ) ;
#82 = DIRECTION ( 'NONE',  ( -3.491481338843133355E-15, 1.224646799147353207E-16, -1.000000000000000000 ) ) ;
#83 = ORIENTED_EDGE ( 'NONE', *, *, #187, .T. ) ;
#84 = DIRECTION ( 'NONE',  ( 0.0000000000000000000, 1.000000000000000000, 0.0000000000000000000 ) ) ;
#85 = EDGE_LOOP ( 'NONE', ( #190 ) ) ;
#86 = APPROVAL ( #12, 'UNSPECIFIED' ) ;
#87 = CARTESIAN_POINT ( 'NONE',  ( 4.371200298788407130E-14, 6.748919021978337340E-33, 12.51961524227066214 ) ) ;
#88 = DIRECTION ( 'NONE',  ( 3.491481338843133355E-15, -1.224646799147353207E-16, 1.000000000000000000 ) ) ;
#89 = ORIENTED_EDGE ( 'NONE', *, *, #187, .F. ) ;
#90 = EDGE_CURVE ( 'NONE', #72, #72, #125, .T. ) ;
#91 = ORIENTED_EDGE ( 'NONE', *, *, #19, .F. ) ;
#92 = LOCAL_TIME ( 13, 11, 24.00000000000000000, #117 ) ;
#93 = EDGE_LOOP ( 'NONE', ( #119 ) ) ;
#94 = PERSON_AND_ORGANIZATION_ROLE ( 'design_owner' ) ;
#95 = CIRCLE ( 'NONE', #79, 0.9000000000000000222 ) ;
#96 = SECURITY_CLASSIFICATION_LEVEL ( 'unclassified' ) ;
#97 = COORDINATED_UNIVERSAL_TIME_OFFSET ( 1, 0, .AHEAD. ) ;
#98 = DIRECTION ( 'NONE',  ( -3.491481338843133355E-15, 1.224646799147353207E-16, -1.000000000000000000 ) ) ;
#99 = DIRECTION ( 'NONE',  ( -3.491481338843133355E-15, 1.224646799147353207E-16, -1.000000000000000000 ) ) ;
#100 = CARTESIAN_POINT ( 'NONE',  ( 1.326762908760390423E-13, -4.653657836759941941E-15, 38.00000000000000000 ) ) ;
#101 =( GEOMETRIC_REPRESENTATION_CONTEXT ( 3 ) GLOBAL_UNCERTAINTY_ASSIGNED_CONTEXT ( ( #152 ) ) GLOBAL_UNIT_ASSIGNED_CONTEXT ( ( #112, #168, #185 ) ) REPRESENTATION_CONTEXT ( 'NONE', 'WORKASPACE' ) );
#102 = CIRCLE ( 'NONE', #228, 0.9669872981077796137 ) ;
#103 = DIRECTION ( 'NONE',  ( 0.0000000000000000000, -1.000000000000000000, 0.0000000000000000000 ) ) ;
#104 = CALENDAR_DATE ( 2021, 10, 11 ) ;
#105 = CARTESIAN_POINT ( 'NONE',  ( 1.326762908760390423E-13, -4.653657836759941941E-15, 38.00000000000000000 ) ) ;
#106 = DATE_AND_TIME ( #129, #162 ) ;
#107 = CARTESIAN_POINT ( 'NONE',  ( 1.814226921766464730E-15, 0.8999999999999999112, 0.5196152422706605822 ) ) ;
#108 = PERSON_AND_ORGANIZATION ( #182, #221 ) ;
#109 = FACE_OUTER_BOUND ( 'NONE', #27, .T. ) ;
#110 = PERSON_AND_ORGANIZATION ( #182, #221 ) ;
#111 = PRODUCT ( '961883', '961883', '', ( #114 ) ) ;
#112 =( LENGTH_UNIT ( ) NAMED_UNIT ( * ) SI_UNIT ( .MILLI., .METRE. ) );
#113 = AXIS2_PLACEMENT_3D ( 'NONE', #151, #183, #13 ) ;
#114 = MECHANICAL_CONTEXT ( 'NONE', #124, 'mechanical' ) ;
#115 = CIRCLE ( 'NONE', #64, 0.7999999999999996003 ) ;
#116 = CLOSED_SHELL ( 'NONE', ( #226, #179, #207 ) ) ;
#117 = COORDINATED_UNIVERSAL_TIME_OFFSET ( 1, 0, .AHEAD. ) ;
#118 = DIRECTION ( 'NONE',  ( 1.000000000000000000, 0.0000000000000000000, 0.0000000000000000000 ) ) ;
#119 = ORIENTED_EDGE ( 'NONE', *, *, #81, .F. ) ;
#120 = EDGE_CURVE ( 'NONE', #218, #218, #115, .T. ) ;
#121 = AXIS2_PLACEMENT_3D ( 'NONE', #87, #165, #149 ) ;
#122 = DIRECTION ( 'NONE',  ( 4.279844320860524021E-31, 1.000000000000000000, 1.204669080539449344E-16 ) ) ;
#123 = ORIENTED_EDGE ( 'NONE', *, *, #120, .T. ) ;
#124 = APPLICATION_CONTEXT ( 'configuration controlled 3d designs of mechanical parts and assemblies' ) ;
#125 = CIRCLE ( 'NONE', #59, 0.9999999999999983347 ) ;
#126 = CONICAL_SURFACE ( 'NONE', #53, 0.7999999999999996003, 0.7853981633974507215 ) ;
#127 = DIRECTION ( 'NONE',  ( -4.554490559825206315E-31, -1.000000000000000000, -1.281975124255702555E-16 ) ) ;
#128 = DIRECTION ( 'NONE',  ( -3.491481338843133355E-15, 1.224646799147353207E-16, -1.000000000000000000 ) ) ;
#129 = CALENDAR_DATE ( 2021, 10, 11 ) ;
#130 = EDGE_CURVE ( 'NONE', #40, #40, #75, .T. ) ;
#131 = DIRECTION ( 'NONE',  ( 4.275831445896958607E-31, 1.000000000000000000, 1.224646799147352961E-16 ) ) ;
#132 = CARTESIAN_POINT ( 'NONE',  ( 0.0000000000000000000, 0.0000000000000000000, 0.0000000000000000000 ) ) ;
#133 = CARTESIAN_POINT ( 'NONE',  ( 1.319779946082704535E-13, 0.9999999999999947820, 37.79999999999999716 ) ) ;
#134 = APPROVAL_PERSON_ORGANIZATION ( #194, #209, #28 ) ;
#135 = CARTESIAN_POINT ( 'NONE',  ( 4.371200298788407130E-14, 6.748919021978337340E-33, 12.51961524227066214 ) ) ;
#136 = PERSON_AND_ORGANIZATION ( #182, #221 ) ;
#137 = PRODUCT_DEFINITION_FORMATION_WITH_SPECIFIED_SOURCE ( 'ANY', '', #111, .NOT_KNOWN. ) ;
#138 = PRODUCT_DEFINITION ( 'UNKNOWN', '', #137, #167 ) ;
#139 = APPROVAL_DATE_TIME ( #233, #209 ) ;
#140 = AXIS2_PLACEMENT_3D ( 'NONE', #150, #128, #236 ) ;
#141 = FACE_OUTER_BOUND ( 'NONE', #169, .T. ) ;
#142 = DATE_TIME_ROLE ( 'classification_date' ) ;
#143 = DIRECTION ( 'NONE',  ( 0.0000000000000000000, 1.000000000000000000, 0.0000000000000000000 ) ) ;
#144 = DIRECTION ( 'NONE',  ( 0.0000000000000000000, -1.000000000000000000, 0.0000000000000000000 ) ) ;
#145 = FACE_BOUND ( 'NONE', #50, .T. ) ;
#146 = EDGE_LOOP ( 'NONE', ( #10 ) ) ;
#147 = ORIENTED_EDGE ( 'NONE', *, *, #90, .F. ) ;
#148 = COORDINATED_UNIVERSAL_TIME_OFFSET ( 1, 0, .AHEAD. ) ;
#149 = DIRECTION ( 'NONE',  ( -4.275831445896958607E-31, -1.000000000000000000, -1.224646799147353207E-16 ) ) ;
#150 = CARTESIAN_POINT ( 'NONE',  ( 1.326762908760390423E-13, 5.999039130647358587E-33, 38.00000000000000000 ) ) ;
#151 = CARTESIAN_POINT ( 'NONE',  ( 0.0000000000000000000, 0.0000000000000000000, 0.0000000000000000000 ) ) ;
#152 = UNCERTAINTY_MEASURE_WITH_UNIT (LENGTH_MEASURE( 1.000000000000000082E-05 ), #112, 'distance_accuracy_value', 'NONE');
#153 = DIRECTION ( 'NONE',  ( -3.491481338843133355E-15, 1.224646799147353207E-16, -1.000000000000000000 ) ) ;
#154 = APPROVAL_PERSON_ORGANIZATION ( #108, #77, #206 ) ;
#155 = DIRECTION ( 'NONE',  ( 0.0000000000000000000, 1.000000000000000000, 0.0000000000000000000 ) ) ;
#156 = CC_DESIGN_PERSON_AND_ORGANIZATION_ASSIGNMENT ( #204, #80, ( #137 ) ) ;
#157 = AXIS2_PLACEMENT_3D ( 'NONE', #70, #153, #131 ) ;
#158 = TOROIDAL_SURFACE ( 'NONE', #189, 1.399999999999999689, 0.5000000000000000000 ) ;
#159 = ORIENTED_EDGE ( 'NONE', *, *, #120, .F. ) ;
#160 = EDGE_LOOP ( 'NONE', ( #159 ) ) ;
#161 = FACE_OUTER_BOUND ( 'NONE', #23, .T. ) ;
#162 = LOCAL_TIME ( 13, 11, 24.00000000000000000, #178 ) ;
#163 = DIRECTION ( 'NONE',  ( 0.0000000000000000000, -1.000000000000000000, 0.0000000000000000000 ) ) ;
#164 = CARTESIAN_POINT ( 'NONE',  ( 1.319779946082704535E-13, -4.629164900776995227E-15, 37.79999999999999716 ) ) ;
#165 = DIRECTION ( 'NONE',  ( 3.491481338843133355E-15, -1.224646799147353207E-16, 1.000000000000000000 ) ) ;
#166 = DATE_TIME_ROLE ( 'creation_date' ) ;
#167 = DESIGN_CONTEXT ( 'detailed design', #22, 'design' ) ;
#168 =( NAMED_UNIT ( * ) PLANE_ANGLE_UNIT ( ) SI_UNIT ( $, .RADIAN. ) );
#169 = EDGE_LOOP ( 'NONE', ( #91 ) ) ;
#170 = ADVANCED_FACE ( 'NONE', ( #145, #161 ), #243, .T. ) ;
#171 = APPLICATION_PROTOCOL_DEFINITION ( 'international standard', 'config_control_design', 1994, #22 ) ;
#172 = DIRECTION ( 'NONE',  ( -4.275831445896958607E-31, -1.000000000000000000, -1.224646799147353207E-16 ) ) ;
#173 = CALENDAR_DATE ( 2021, 10, 11 ) ;
#174 = EDGE_LOOP ( 'NONE', ( #147 ) ) ;
#175 = APPROVAL_PERSON_ORGANIZATION ( #33, #86, #184 ) ;
#176 = CC_DESIGN_APPROVAL ( #86, ( #137 ) ) ;
#177 = DIRECTION ( 'NONE',  ( -3.491481338843133355E-15, 1.224646799147353207E-16, -1.000000000000000000 ) ) ;
#178 = COORDINATED_UNIVERSAL_TIME_OFFSET ( 1, 0, .AHEAD. ) ;
#179 = ADVANCED_FACE ( 'NONE', ( #34, #57 ), #37, .T. ) ;
#180 = COORDINATED_UNIVERSAL_TIME_OFFSET ( 1, 0, .AHEAD. ) ;
#181 = FACE_OUTER_BOUND ( 'NONE', #174, .T. ) ;
#182 = PERSON ( 'UNSPECIFIED', 'UNSPECIFIED', 'UNSPECIFIED', ('UNSPECIFIED'), ('UNSPECIFIED'), ('UNSPECIFIED') ) ;
#183 = DIRECTION ( 'NONE',  ( -3.491481338843133355E-15, 1.224646799147353207E-16, -1.000000000000000000 ) ) ;
#184 = APPROVAL_ROLE ( '' ) ;
#185 =( NAMED_UNIT ( * ) SI_UNIT ( $, .STERADIAN. ) SOLID_ANGLE_UNIT ( ) );
#186 = EDGE_LOOP ( 'NONE', ( #123 ) ) ;
#187 = EDGE_CURVE ( 'NONE', #16, #16, #52, .T. ) ;
#188 = AXIS2_PLACEMENT_3D ( 'NONE', #164, #17, #238 ) ;
#189 = AXIS2_PLACEMENT_3D ( 'NONE', #4, #213, #6 ) ;
#190 = ORIENTED_EDGE ( 'NONE', *, *, #130, .T. ) ;
#191 = AXIS2_PLACEMENT_3D ( 'NONE', #214, #31, #163 ) ;
#192 = PERSON_AND_ORGANIZATION ( #182, #221 ) ;
#193 = EDGE_LOOP ( 'NONE', ( #30 ) ) ;
#194 = PERSON_AND_ORGANIZATION ( #182, #221 ) ;
#195 = FACE_OUTER_BOUND ( 'NONE', #146, .T. ) ;
#196 = CARTESIAN_POINT ( 'NONE',  ( 4.458487332259483887E-14, -1.592543485925310968E-15, 12.76961524227065858 ) ) ;
#197 = CONICAL_SURFACE ( 'NONE', #237, 1732.050807568886512, 1.047197551196600074 ) ;
#198 = DIRECTION ( 'NONE',  ( -3.491481338843133355E-15, 1.247135059052984700E-16, -1.000000000000000000 ) ) ;
#199 = APPROVAL_DATE_TIME ( #51, #77 ) ;
#200 = DIRECTION ( 'NONE',  ( -3.491481338843133355E-15, 1.224646799147353207E-16, -1.000000000000000000 ) ) ;
#201 = PERSON_AND_ORGANIZATION_ROLE ( 'creator' ) ;
#202 = CC_DESIGN_PERSON_AND_ORGANIZATION_ASSIGNMENT ( #110, #201, ( #138 ) ) ;
#203 = VERTEX_POINT ( 'NONE', #107 ) ;
#204 = PERSON_AND_ORGANIZATION ( #182, #221 ) ;
#205 = CARTESIAN_POINT ( 'NONE',  ( 3.491481338843133254E-12, -1.224646799147353249E-13, 1000.000000000000000 ) ) ;
#206 = APPROVAL_ROLE ( '' ) ;
#207 = ADVANCED_FACE ( 'NONE', ( #240 ), #220, .T. ) ;
#208 = ORIENTED_EDGE ( 'NONE', *, *, #1, .F. ) ;
#209 = APPROVAL ( #26, 'UNSPECIFIED' ) ;
#210 = DATE_AND_TIME ( #173, #92 ) ;
#211 = LOCAL_TIME ( 13, 11, 24.00000000000000000, #180 ) ;
#212 = MANIFOLD_SOLID_BREP ( 'Corps-Déplacer/Copier1[1]', #9 ) ;
#213 = DIRECTION ( 'NONE',  ( -3.491481338843133355E-15, 1.224646799147353207E-16, -1.000000000000000000 ) ) ;
#214 = CARTESIAN_POINT ( 'NONE',  ( 4.538925740496073362E-14, -1.621275576768880159E-15, 13.00000000000000000 ) ) ;
#215 = ORIENTED_EDGE ( 'NONE', *, *, #19, .T. ) ;
#216 = ADVANCED_FACE ( 'NONE', ( #109, #181 ), #60, .T. ) ;
#217 = CARTESIAN_POINT ( 'NONE',  ( 4.371200298788407130E-14, 0.8999999999999984679, 12.51961524227066214 ) ) ;
#218 = VERTEX_POINT ( 'NONE', #39 ) ;
#219 = CARTESIAN_POINT ( 'NONE',  ( 4.478451509770522644E-14, -0.9999999999999997780, 12.82679491924310788 ) ) ;
#220 = PLANE ( 'NONE',  #121 ) ;
#221 = ORGANIZATION ( 'UNSPECIFIED', 'UNSPECIFIED', '' ) ;
#222 = CARTESIAN_POINT ( 'NONE',  ( 4.371200298788407130E-14, 0.8999999999999984679, 12.51961524227066214 ) ) ;
#223 = ORIENTED_EDGE ( 'NONE', *, *, #81, .T. ) ;
#224 = PERSON_AND_ORGANIZATION_ROLE ( 'classification_officer' ) ;
#225 = DIRECTION ( 'NONE',  ( 0.0000000000000000000, 0.0000000000000000000, 1.000000000000000000 ) ) ;
#226 = ADVANCED_FACE ( 'NONE', ( #15 ), #197, .T. ) ;
#227 = LOCAL_TIME ( 13, 11, 24.00000000000000000, #148 ) ;
#228 = AXIS2_PLACEMENT_3D ( 'NONE', #196, #67, #144 ) ;
#229 = CC_DESIGN_PERSON_AND_ORGANIZATION_ASSIGNMENT ( #230, #66, ( #137 ) ) ;
#230 = PERSON_AND_ORGANIZATION ( #182, #221 ) ;
#231 = CARTESIAN_POINT ( 'NONE',  ( 1.814226921766464336E-15, -6.363451432349407469E-17, 0.5196152422706604712 ) ) ;
#232 = FACE_OUTER_BOUND ( 'NONE', #69, .T. ) ;
#233 = DATE_AND_TIME ( #47, #42 ) ;
#234 = DIRECTION ( 'NONE',  ( 0.0000000000000000000, 1.000000000000000000, 0.0000000000000000000 ) ) ;
#235 = AXIS2_PLACEMENT_3D ( 'NONE', #29, #99, #84 ) ;
#236 = DIRECTION ( 'NONE',  ( 4.275831445896958607E-31, 1.000000000000000000, 1.224646799147353207E-16 ) ) ;
#237 = AXIS2_PLACEMENT_3D ( 'NONE', #205, #88, #127 ) ;
#238 = DIRECTION ( 'NONE',  ( 0.0000000000000000000, 1.000000000000000000, 0.0000000000000000000 ) ) ;
#239 = DATE_AND_TIME ( #14, #211 ) ;
#240 = FACE_OUTER_BOUND ( 'NONE', #193, .T. ) ;
#241 = APPROVAL_DATE_TIME ( #239, #86 ) ;
#242 = VERTEX_POINT ( 'NONE', #217 ) ;
#243 = CONICAL_SURFACE ( 'NONE', #191, 1.099999999999998312, 0.5235987755982884906 ) ;
ENDSEC;
END-ISO-10303-21;
