ISO-10303-21;
HEADER;
FILE_DESCRIPTION (( 'STEP AP203' ),
    '1' );
FILE_NAME ('961882.step',
    '2021-11-10T12:11:23',
    ( '' ),
    ( '' ),
    'SwSTEP 2.0',
    'SolidWorks 2019',
    '' );
FILE_SCHEMA (( 'CONFIG_CONTROL_DESIGN' ));
ENDSEC;

DATA;
#1 = CC_DESIGN_PERSON_AND_ORGANIZATION_ASSIGNMENT ( #206, #37, ( #133 ) ) ;
#2 = PERSON_AND_ORGANIZATION_ROLE ( 'classification_officer' ) ;
#3 = DATE_TIME_ROLE ( 'creation_date' ) ;
#4 = EDGE_LOOP ( 'NONE', ( #104 ) ) ;
#5 = AXIS2_PLACEMENT_3D ( 'NONE', #89, #31, #65 ) ;
#6 = SHAPE_DEFINITION_REPRESENTATION ( #61, #145 ) ;
#7 = APPROVAL_ROLE ( '' ) ;
#8 = AXIS2_PLACEMENT_3D ( 'NONE', #180, #202, #84 ) ;
#9 = EDGE_CURVE ( 'NONE', #91, #91, #77, .T. ) ;
#10 = EDGE_LOOP ( 'NONE', ( #119 ) ) ;
#11 = DIRECTION ( 'NONE',  ( -3.491481338843133355E-15, 1.224646799147353207E-16, -1.000000000000000000 ) ) ;
#12 = CIRCLE ( 'NONE', #144, 0.9999999999999981126 ) ;
#13 = DIRECTION ( 'NONE',  ( 0.0000000000000000000, 1.000000000000000000, 0.0000000000000000000 ) ) ;
#14 = DIRECTION ( 'NONE',  ( -3.491481338843133355E-15, 1.224646799147353207E-16, -1.000000000000000000 ) ) ;
#15 = DIRECTION ( 'NONE',  ( 4.531599869146436529E-31, 1.000000000000000000, 1.275531967630004999E-16 ) ) ;
#16 = AXIS2_PLACEMENT_3D ( 'NONE', #241, #53, #151 ) ;
#17 = DIRECTION ( 'NONE',  ( -3.491481338843133355E-15, 1.224646799147353207E-16, -1.000000000000000000 ) ) ;
#18 =( LENGTH_UNIT ( ) NAMED_UNIT ( * ) SI_UNIT ( .MILLI., .METRE. ) );
#19 = LOCAL_TIME ( 13, 11, 23.00000000000000000, #231 ) ;
#20 = EDGE_CURVE ( 'NONE', #240, #240, #12, .T. ) ;
#21 = DATE_AND_TIME ( #135, #41 ) ;
#22 = DATE_AND_TIME ( #134, #150 ) ;
#23 = PERSON_AND_ORGANIZATION ( #81, #186 ) ;
#24 = EDGE_LOOP ( 'NONE', ( #26 ) ) ;
#25 = DATE_TIME_ROLE ( 'classification_date' ) ;
#26 = ORIENTED_EDGE ( 'NONE', *, *, #9, .T. ) ;
#27 = CC_DESIGN_APPROVAL ( #34, ( #205 ) ) ;
#28 = FACE_OUTER_BOUND ( 'NONE', #139, .T. ) ;
#29 = CARTESIAN_POINT ( 'NONE',  ( 0.0000000000000000000, 0.0000000000000000000, 0.0000000000000000000 ) ) ;
#30 = APPLICATION_CONTEXT ( 'configuration controlled 3d designs of mechanical parts and assemblies' ) ;
#31 = DIRECTION ( 'NONE',  ( 3.491481338843133355E-15, -1.224646799147353207E-16, 1.000000000000000000 ) ) ;
#32 = ORIENTED_EDGE ( 'NONE', *, *, #9, .F. ) ;
#33 = CYLINDRICAL_SURFACE ( 'NONE', #82, 0.9999999999999981126 ) ;
#34 = APPROVAL ( #75, 'UNSPECIFIED' ) ;
#35 = AXIS2_PLACEMENT_3D ( 'NONE', #141, #160, #103 ) ;
#36 = DIRECTION ( 'NONE',  ( 1.000000000000000000, 0.0000000000000000000, 0.0000000000000000000 ) ) ;
#37 = PERSON_AND_ORGANIZATION_ROLE ( 'design_owner' ) ;
#38 = CARTESIAN_POINT ( 'NONE',  ( 1.326762908760390423E-13, 5.999039130647358587E-33, 38.00000000000000000 ) ) ;
#39 = CARTESIAN_POINT ( 'NONE',  ( 1.713436537223883225E-15, 0.8499999999999999778, 0.4907477288111792846 ) ) ;
#40 = ADVANCED_FACE ( 'NONE', ( #182 ), #47, .T. ) ;
#41 = LOCAL_TIME ( 13, 11, 23.00000000000000000, #56 ) ;
#42 = PERSON_AND_ORGANIZATION ( #81, #186 ) ;
#43 = EDGE_LOOP ( 'NONE', ( #127 ) ) ;
#44 = ORIENTED_EDGE ( 'NONE', *, *, #229, .F. ) ;
#45 = CC_DESIGN_PERSON_AND_ORGANIZATION_ASSIGNMENT ( #138, #2, ( #98 ) ) ;
#46 = CC_DESIGN_APPROVAL ( #209, ( #52 ) ) ;
#47 = PLANE ( 'NONE',  #35 ) ;
#48 = DIRECTION ( 'NONE',  ( 4.275831445896958607E-31, 1.000000000000000000, 1.224646799147353207E-16 ) ) ;
#49 = CARTESIAN_POINT ( 'NONE',  ( 4.361121260334148783E-14, -1.517883041479706208E-15, 12.49074772881117923 ) ) ;
#50 = CC_DESIGN_APPROVAL ( #217, ( #98 ) ) ;
#51 = DIRECTION ( 'NONE',  ( -3.491481338843133355E-15, 1.224646799147353207E-16, -1.000000000000000000 ) ) ;
#52 = PRODUCT_DEFINITION ( 'UNKNOWN', '', #205, #54 ) ;
#53 = DIRECTION ( 'NONE',  ( -3.491481338843133355E-15, 1.224646799147353207E-16, -1.000000000000000000 ) ) ;
#54 = DESIGN_CONTEXT ( 'detailed design', #228, 'design' ) ;
#55 = DATE_AND_TIME ( #100, #200 ) ;
#56 = COORDINATED_UNIVERSAL_TIME_OFFSET ( 1, 0, .AHEAD. ) ;
#57 = COORDINATED_UNIVERSAL_TIME_OFFSET ( 1, 0, .AHEAD. ) ;
#58 = ORIENTED_EDGE ( 'NONE', *, *, #152, .T. ) ;
#59 = PERSON_AND_ORGANIZATION_ROLE ( 'creator' ) ;
#60 = APPROVAL_PERSON_ORGANIZATION ( #23, #34, #193 ) ;
#61 = PRODUCT_DEFINITION_SHAPE ( 'NONE', 'NONE',  #52 ) ;
#62 = FACE_OUTER_BOUND ( 'NONE', #196, .T. ) ;
#63 = FACE_OUTER_BOUND ( 'NONE', #80, .T. ) ;
#64 = AXIS2_PLACEMENT_3D ( 'NONE', #185, #147, #36 ) ;
#65 = DIRECTION ( 'NONE',  ( -4.275831445896958607E-31, -1.000000000000000000, -1.224646799147353207E-16 ) ) ;
#66 = ADVANCED_FACE ( 'NONE', ( #122, #184 ), #108, .T. ) ;
#67 = DIRECTION ( 'NONE',  ( -3.491481338843133355E-15, 1.224646799147353207E-16, -1.000000000000000000 ) ) ;
#68 = FACE_OUTER_BOUND ( 'NONE', #174, .T. ) ;
#69 = AXIS2_PLACEMENT_3D ( 'NONE', #162, #183, #48 ) ;
#70 = VERTEX_POINT ( 'NONE', #226 ) ;
#71 = VERTEX_POINT ( 'NONE', #39 ) ;
#72 = FACE_OUTER_BOUND ( 'NONE', #201, .T. ) ;
#73 = CIRCLE ( 'NONE', #220, 0.8500000000000000888 ) ;
#74 = CARTESIAN_POINT ( 'NONE',  ( 4.448408293805225539E-14, -1.588943317115010767E-15, 12.74074772881117568 ) ) ;
#75 = APPROVAL_STATUS ( 'not_yet_approved' ) ;
#76 = CC_DESIGN_DATE_AND_TIME_ASSIGNMENT ( #22, #3, ( #52 ) ) ;
#77 = CIRCLE ( 'NONE', #8, 0.7999999999999996003 ) ;
#78 = PERSON_AND_ORGANIZATION_ROLE ( 'creator' ) ;
#79 = EDGE_LOOP ( 'NONE', ( #194 ) ) ;
#80 = EDGE_LOOP ( 'NONE', ( #142 ) ) ;
#81 = PERSON ( 'UNSPECIFIED', 'UNSPECIFIED', 'UNSPECIFIED', ('UNSPECIFIED'), ('UNSPECIFIED'), ('UNSPECIFIED') ) ;
#82 = AXIS2_PLACEMENT_3D ( 'NONE', #29, #51, #109 ) ;
#83 = EDGE_LOOP ( 'NONE', ( #44 ) ) ;
#84 = DIRECTION ( 'NONE',  ( 0.0000000000000000000, 1.000000000000000000, 0.0000000000000000000 ) ) ;
#85 = EDGE_CURVE ( 'NONE', #149, #149, #191, .T. ) ;
#86 = FACE_OUTER_BOUND ( 'NONE', #178, .T. ) ;
#87 = DIRECTION ( 'NONE',  ( 4.275831445896957731E-31, 1.000000000000000000, 1.224646799147353207E-16 ) ) ;
#88 = ADVANCED_FACE ( 'NONE', ( #197 ), #237, .F. ) ;
#89 = CARTESIAN_POINT ( 'NONE',  ( 4.361121260334148783E-14, 6.373979076312871570E-33, 12.49074772881117923 ) ) ;
#90 = TOROIDAL_SURFACE ( 'NONE', #230, 1.349999999999999867, 0.5000000000000002220 ) ;
#91 = VERTEX_POINT ( 'NONE', #114 ) ;
#92 = MANIFOLD_SOLID_BREP ( 'Corps-Déplacer/Copier1[1]', #136 ) ;
#93 = MECHANICAL_CONTEXT ( 'NONE', #30, 'mechanical' ) ;
#94 = ADVANCED_FACE ( 'NONE', ( #63, #234 ), #90, .F. ) ;
#95 = CC_DESIGN_DATE_AND_TIME_ASSIGNMENT ( #21, #25, ( #98 ) ) ;
#96 =( GEOMETRIC_REPRESENTATION_CONTEXT ( 3 ) GLOBAL_UNCERTAINTY_ASSIGNED_CONTEXT ( ( #148 ) ) GLOBAL_UNIT_ASSIGNED_CONTEXT ( ( #18, #203, #165 ) ) REPRESENTATION_CONTEXT ( 'NONE', 'WORKASPACE' ) );
#97 = CARTESIAN_POINT ( 'NONE',  ( 4.361121260334148783E-14, 0.8499999999999984235, 12.49074772881117923 ) ) ;
#98 = SECURITY_CLASSIFICATION ( '', '', #232 ) ;
#99 = CALENDAR_DATE ( 2021, 10, 11 ) ;
#100 = CALENDAR_DATE ( 2021, 10, 11 ) ;
#101 = PERSON_AND_ORGANIZATION ( #81, #186 ) ;
#102 = ORIENTED_EDGE ( 'NONE', *, *, #20, .F. ) ;
#103 = DIRECTION ( 'NONE',  ( -4.275831445896958607E-31, -1.000000000000000000, -1.224646799147353207E-16 ) ) ;
#104 = ORIENTED_EDGE ( 'NONE', *, *, #152, .F. ) ;
#105 = CARTESIAN_POINT ( 'NONE',  ( 1.713436537223882831E-15, -6.009926352774439566E-17, 0.4907477288111791736 ) ) ;
#106 = CIRCLE ( 'NONE', #243, 0.9169872981077799023 ) ;
#107 = ADVANCED_FACE ( 'NONE', ( #238, #68 ), #215, .T. ) ;
#108 = CYLINDRICAL_SURFACE ( 'NONE', #69, 0.8500000000000000888 ) ;
#109 = DIRECTION ( 'NONE',  ( 4.275831445896958607E-31, 1.000000000000000000, 1.224646799147352961E-16 ) ) ;
#110 = CC_DESIGN_PERSON_AND_ORGANIZATION_ASSIGNMENT ( #208, #173, ( #205 ) ) ;
#111 = CONICAL_SURFACE ( 'NONE', #225, 1732.050807568886512, 1.047197551196600074 ) ;
#112 = ADVANCED_FACE ( 'NONE', ( #28, #179 ), #181, .T. ) ;
#113 = CARTESIAN_POINT ( 'NONE',  ( 4.361121260334148783E-14, -1.529675422504568368E-15, 12.49074772881117923 ) ) ;
#114 = CARTESIAN_POINT ( 'NONE',  ( 1.326762908760390423E-13, 0.7999999999999949374, 38.00000000000000000 ) ) ;
#115 = CLOSED_SHELL ( 'NONE', ( #163, #66, #40 ) ) ;
#116 = APPROVAL_STATUS ( 'not_yet_approved' ) ;
#117 = CIRCLE ( 'NONE', #16, 0.8499999999999999778 ) ;
#118 = APPLICATION_PROTOCOL_DEFINITION ( 'international standard', 'config_control_design', 1994, #228 ) ;
#119 = ORIENTED_EDGE ( 'NONE', *, *, #140, .T. ) ;
#120 = COORDINATED_UNIVERSAL_TIME_OFFSET ( 1, 0, .AHEAD. ) ;
#121 = EDGE_LOOP ( 'NONE', ( #158 ) ) ;
#122 = FACE_OUTER_BOUND ( 'NONE', #218, .T. ) ;
#123 = CIRCLE ( 'NONE', #212, 0.8499999999999999778 ) ;
#124 = CC_DESIGN_PERSON_AND_ORGANIZATION_ASSIGNMENT ( #171, #78, ( #52 ) ) ;
#125 = DIRECTION ( 'NONE',  ( 3.491481338843133355E-15, -1.247135059052984700E-16, 1.000000000000000000 ) ) ;
#126 = CARTESIAN_POINT ( 'NONE',  ( 4.498609586679038709E-14, -1.606874901527678370E-15, 12.88452994616207192 ) ) ;
#127 = ORIENTED_EDGE ( 'NONE', *, *, #219, .T. ) ;
#128 = CARTESIAN_POINT ( 'NONE',  ( 1.319779946082704535E-13, 0.9999999999999947820, 37.79999999999999716 ) ) ;
#129 = PLANE ( 'NONE',  #170 ) ;
#130 = ADVANCED_FACE ( 'NONE', ( #86, #62 ), #33, .T. ) ;
#131 = DIRECTION ( 'NONE',  ( 4.275831445896958607E-31, 1.000000000000000000, 1.224646799147353207E-16 ) ) ;
#132 = VERTEX_POINT ( 'NONE', #97 ) ;
#133 = PRODUCT ( '961882', '961882', '', ( #93 ) ) ;
#134 = CALENDAR_DATE ( 2021, 10, 11 ) ;
#135 = CALENDAR_DATE ( 2021, 10, 11 ) ;
#136 = CLOSED_SHELL ( 'NONE', ( #130, #112, #176, #107, #88, #94 ) ) ;
#137 = APPROVAL_DATE_TIME ( #167, #209 ) ;
#138 = PERSON_AND_ORGANIZATION ( #81, #186 ) ;
#139 = EDGE_LOOP ( 'NONE', ( #221 ) ) ;
#140 = EDGE_CURVE ( 'NONE', #71, #71, #73, .T. ) ;
#141 = CARTESIAN_POINT ( 'NONE',  ( 4.361121260334148783E-14, 6.373979076312871570E-33, 12.49074772881117923 ) ) ;
#142 = ORIENTED_EDGE ( 'NONE', *, *, #219, .F. ) ;
#143 = CARTESIAN_POINT ( 'NONE',  ( 1.326762908760390423E-13, -4.653657836759941941E-15, 38.00000000000000000 ) ) ;
#144 = AXIS2_PLACEMENT_3D ( 'NONE', #126, #214, #161 ) ;
#145 = ADVANCED_BREP_SHAPE_REPRESENTATION ( '961882', ( #92, #172, #64 ), #96 ) ;
#146 = CC_DESIGN_PERSON_AND_ORGANIZATION_ASSIGNMENT ( #101, #59, ( #205 ) ) ;
#147 = DIRECTION ( 'NONE',  ( 0.0000000000000000000, 0.0000000000000000000, 1.000000000000000000 ) ) ;
#148 = UNCERTAINTY_MEASURE_WITH_UNIT (LENGTH_MEASURE( 1.000000000000000082E-05 ), #18, 'distance_accuracy_value', 'NONE');
#149 = VERTEX_POINT ( 'NONE', #128 ) ;
#150 = LOCAL_TIME ( 13, 11, 23.00000000000000000, #120 ) ;
#151 = DIRECTION ( 'NONE',  ( 0.0000000000000000000, 1.000000000000000000, 0.0000000000000000000 ) ) ;
#152 = EDGE_CURVE ( 'NONE', #223, #223, #123, .T. ) ;
#153 = FACE_OUTER_BOUND ( 'NONE', #10, .T. ) ;
#154 = APPROVAL_STATUS ( 'not_yet_approved' ) ;
#155 = COORDINATED_UNIVERSAL_TIME_OFFSET ( 1, 0, .AHEAD. ) ;
#156 = ORIENTED_EDGE ( 'NONE', *, *, #20, .T. ) ;
#157 = APPROVAL_PERSON_ORGANIZATION ( #42, #217, #7 ) ;
#158 = ORIENTED_EDGE ( 'NONE', *, *, #229, .T. ) ;
#159 = DIRECTION ( 'NONE',  ( -3.491481338843133355E-15, 1.224646799147353207E-16, -1.000000000000000000 ) ) ;
#160 = DIRECTION ( 'NONE',  ( 3.491481338843133355E-15, -1.224646799147353207E-16, 1.000000000000000000 ) ) ;
#161 = DIRECTION ( 'NONE',  ( 0.0000000000000000000, -1.000000000000000000, 0.0000000000000000000 ) ) ;
#162 = CARTESIAN_POINT ( 'NONE',  ( 0.0000000000000000000, 0.0000000000000000000, 0.0000000000000000000 ) ) ;
#163 = ADVANCED_FACE ( 'NONE', ( #153 ), #111, .T. ) ;
#164 = DIRECTION ( 'NONE',  ( 3.491481338843133355E-15, -1.224646799147353207E-16, 1.000000000000000000 ) ) ;
#165 =( NAMED_UNIT ( * ) SI_UNIT ( $, .STERADIAN. ) SOLID_ANGLE_UNIT ( ) );
#166 = APPROVAL_PERSON_ORGANIZATION ( #213, #209, #168 ) ;
#167 = DATE_AND_TIME ( #99, #19 ) ;
#168 = APPROVAL_ROLE ( '' ) ;
#169 = ORIENTED_EDGE ( 'NONE', *, *, #85, .T. ) ;
#170 = AXIS2_PLACEMENT_3D ( 'NONE', #38, #17, #131 ) ;
#171 = PERSON_AND_ORGANIZATION ( #81, #186 ) ;
#172 = MANIFOLD_SOLID_BREP ( 'Corps-Déplacer/Copier1[2]', #115 ) ;
#173 = PERSON_AND_ORGANIZATION_ROLE ( 'design_supplier' ) ;
#174 = EDGE_LOOP ( 'NONE', ( #156 ) ) ;
#175 = APPROVAL_DATE_TIME ( #210, #217 ) ;
#176 = ADVANCED_FACE ( 'NONE', ( #72 ), #129, .F. ) ;
#177 = LOCAL_TIME ( 13, 11, 23.00000000000000000, #57 ) ;
#178 = EDGE_LOOP ( 'NONE', ( #169 ) ) ;
#179 = FACE_BOUND ( 'NONE', #24, .T. ) ;
#180 = CARTESIAN_POINT ( 'NONE',  ( 1.326762908760390423E-13, -4.653657836759941941E-15, 38.00000000000000000 ) ) ;
#181 = CONICAL_SURFACE ( 'NONE', #239, 0.7999999999999996003, 0.7853981633974507215 ) ;
#182 = FACE_OUTER_BOUND ( 'NONE', #4, .T. ) ;
#183 = DIRECTION ( 'NONE',  ( -3.491481338843133355E-15, 1.224646799147353207E-16, -1.000000000000000000 ) ) ;
#184 = FACE_OUTER_BOUND ( 'NONE', #79, .T. ) ;
#185 = CARTESIAN_POINT ( 'NONE',  ( 0.0000000000000000000, 0.0000000000000000000, 0.0000000000000000000 ) ) ;
#186 = ORGANIZATION ( 'UNSPECIFIED', 'UNSPECIFIED', '' ) ;
#187 = DIRECTION ( 'NONE',  ( 0.0000000000000000000, -1.000000000000000000, 0.0000000000000000000 ) ) ;
#188 = CARTESIAN_POINT ( 'NONE',  ( 4.498609586679038709E-14, -0.9999999999999995559, 12.88452994616207192 ) ) ;
#189 = CC_DESIGN_SECURITY_CLASSIFICATION ( #98, ( #205 ) ) ;
#190 = DIRECTION ( 'NONE',  ( -3.491481338843133355E-15, 1.224646799147353207E-16, -1.000000000000000000 ) ) ;
#191 = CIRCLE ( 'NONE', #233, 0.9999999999999993339 ) ;
#192 = CALENDAR_DATE ( 2021, 10, 11 ) ;
#193 = APPROVAL_ROLE ( '' ) ;
#194 = ORIENTED_EDGE ( 'NONE', *, *, #140, .F. ) ;
#195 = APPROVAL_DATE_TIME ( #55, #34 ) ;
#196 = EDGE_LOOP ( 'NONE', ( #102 ) ) ;
#197 = FACE_OUTER_BOUND ( 'NONE', #43, .T. ) ;
#198 = DIRECTION ( 'NONE',  ( 0.0000000000000000000, 1.000000000000000000, 0.0000000000000000000 ) ) ;
#199 = DIRECTION ( 'NONE',  ( 0.0000000000000000000, -1.000000000000000000, 0.0000000000000000000 ) ) ;
#200 = LOCAL_TIME ( 13, 11, 23.00000000000000000, #155 ) ;
#201 = EDGE_LOOP ( 'NONE', ( #32 ) ) ;
#202 = DIRECTION ( 'NONE',  ( -3.491481338843133355E-15, 1.224646799147353207E-16, -1.000000000000000000 ) ) ;
#203 =( NAMED_UNIT ( * ) PLANE_ANGLE_UNIT ( ) SI_UNIT ( $, .RADIAN. ) );
#204 = CARTESIAN_POINT ( 'NONE',  ( 3.491481338843133254E-12, -1.224646799147353249E-13, 1000.000000000000000 ) ) ;
#205 = PRODUCT_DEFINITION_FORMATION_WITH_SPECIFIED_SOURCE ( 'ANY', '', #133, .NOT_KNOWN. ) ;
#206 = PERSON_AND_ORGANIZATION ( #81, #186 ) ;
#207 = DIRECTION ( 'NONE',  ( 3.491481338843133355E-15, -1.247135059052984700E-16, 1.000000000000000000 ) ) ;
#208 = PERSON_AND_ORGANIZATION ( #81, #186 ) ;
#209 = APPROVAL ( #154, 'UNSPECIFIED' ) ;
#210 = DATE_AND_TIME ( #192, #177 ) ;
#211 = PRODUCT_RELATED_PRODUCT_CATEGORY ( 'detail', '', ( #133 ) ) ;
#212 = AXIS2_PLACEMENT_3D ( 'NONE', #113, #190, #242 ) ;
#213 = PERSON_AND_ORGANIZATION ( #81, #186 ) ;
#214 = DIRECTION ( 'NONE',  ( -3.491481338843133355E-15, 1.247135059052984700E-16, -1.000000000000000000 ) ) ;
#215 = CONICAL_SURFACE ( 'NONE', #235, 1.099999999999998312, 0.5235987755982893788 ) ;
#216 = CARTESIAN_POINT ( 'NONE',  ( 4.559083817404590057E-14, -1.628475914389480758E-15, 13.05773502691896226 ) ) ;
#217 = APPROVAL ( #116, 'UNSPECIFIED' ) ;
#218 = EDGE_LOOP ( 'NONE', ( #58 ) ) ;
#219 = EDGE_CURVE ( 'NONE', #132, #132, #117, .T. ) ;
#220 = AXIS2_PLACEMENT_3D ( 'NONE', #105, #67, #15 ) ;
#221 = ORIENTED_EDGE ( 'NONE', *, *, #85, .F. ) ;
#222 = DIRECTION ( 'NONE',  ( -4.554490559825206315E-31, -1.000000000000000000, -1.281975124255702555E-16 ) ) ;
#223 = VERTEX_POINT ( 'NONE', #224 ) ;
#224 = CARTESIAN_POINT ( 'NONE',  ( 4.361121260334148783E-14, 0.8499999999999984235, 12.49074772881117923 ) ) ;
#225 = AXIS2_PLACEMENT_3D ( 'NONE', #204, #164, #222 ) ;
#226 = CARTESIAN_POINT ( 'NONE',  ( 4.448408293805225539E-14, -0.9169872981077814567, 12.74074772881117568 ) ) ;
#227 = APPLICATION_PROTOCOL_DEFINITION ( 'international standard', 'config_control_design', 1994, #30 ) ;
#228 = APPLICATION_CONTEXT ( 'configuration controlled 3d designs of mechanical parts and assemblies' ) ;
#229 = EDGE_CURVE ( 'NONE', #70, #70, #106, .T. ) ;
#230 = AXIS2_PLACEMENT_3D ( 'NONE', #49, #11, #87 ) ;
#231 = COORDINATED_UNIVERSAL_TIME_OFFSET ( 1, 0, .AHEAD. ) ;
#232 = SECURITY_CLASSIFICATION_LEVEL ( 'unclassified' ) ;
#233 = AXIS2_PLACEMENT_3D ( 'NONE', #236, #14, #13 ) ;
#234 = FACE_OUTER_BOUND ( 'NONE', #83, .T. ) ;
#235 = AXIS2_PLACEMENT_3D ( 'NONE', #216, #125, #199 ) ;
#236 = CARTESIAN_POINT ( 'NONE',  ( 1.319779946082704535E-13, -4.629164900776995227E-15, 37.79999999999999716 ) ) ;
#237 = PLANE ( 'NONE',  #5 ) ;
#238 = FACE_BOUND ( 'NONE', #121, .T. ) ;
#239 = AXIS2_PLACEMENT_3D ( 'NONE', #143, #159, #198 ) ;
#240 = VERTEX_POINT ( 'NONE', #188 ) ;
#241 = CARTESIAN_POINT ( 'NONE',  ( 4.361121260334148783E-14, -1.529675422504568368E-15, 12.49074772881117923 ) ) ;
#242 = DIRECTION ( 'NONE',  ( 0.0000000000000000000, 1.000000000000000000, 0.0000000000000000000 ) ) ;
#243 = AXIS2_PLACEMENT_3D ( 'NONE', #74, #207, #187 ) ;
ENDSEC;
END-ISO-10303-21;
