ISO-10303-21;
HEADER;
FILE_DESCRIPTION (( 'STEP AP203' ),
    '1' );
FILE_NAME ('961881.step',
    '2021-11-10T12:11:23',
    ( '' ),
    ( '' ),
    'SwSTEP 2.0',
    'SolidWorks 2019',
    '' );
FILE_SCHEMA (( 'CONFIG_CONTROL_DESIGN' ));
ENDSEC;

DATA;
#1 = EDGE_LOOP ( 'NONE', ( #237 ) ) ;
#2 = CARTESIAN_POINT ( 'NONE',  ( 4.340963183425632718E-14, -1.522604920913069059E-15, 12.43301270189221874 ) ) ;
#3 = VERTEX_POINT ( 'NONE', #194 ) ;
#4 = CLOSED_SHELL ( 'NONE', ( #201, #217, #232 ) ) ;
#5 = ADVANCED_FACE ( 'NONE', ( #223, #15 ), #89, .T. ) ;
#6 = FACE_OUTER_BOUND ( 'NONE', #70, .T. ) ;
#7 = CARTESIAN_POINT ( 'NONE',  ( 3.491481338843133254E-12, -1.224646799147353249E-13, 1000.000000000000000 ) ) ;
#8 = FACE_OUTER_BOUND ( 'NONE', #50, .T. ) ;
#9 = CIRCLE ( 'NONE', #130, 0.8169872981077785923 ) ;
#10 = EDGE_LOOP ( 'NONE', ( #145 ) ) ;
#11 = APPROVAL ( #106, 'UNSPECIFIED' ) ;
#12 = APPLICATION_PROTOCOL_DEFINITION ( 'international standard', 'config_control_design', 1994, #64 ) ;
#13 = CARTESIAN_POINT ( 'NONE',  ( 4.538925740496073993E-14, -1.621275576768880159E-15, 13.00000000000000178 ) ) ;
#14 = PERSON_AND_ORGANIZATION ( #81, #165 ) ;
#15 = FACE_OUTER_BOUND ( 'NONE', #171, .T. ) ;
#16 = CALENDAR_DATE ( 2021, 10, 11 ) ;
#17 = APPLICATION_CONTEXT ( 'configuration controlled 3d designs of mechanical parts and assemblies' ) ;
#18 = DIRECTION ( 'NONE',  ( 5.135813185032627774E-31, 1.000000000000000000, 1.445602896647338917E-16 ) ) ;
#19 = CALENDAR_DATE ( 2021, 10, 11 ) ;
#20 = EDGE_LOOP ( 'NONE', ( #72 ) ) ;
#21 = COORDINATED_UNIVERSAL_TIME_OFFSET ( 1, 0, .AHEAD. ) ;
#22 = AXIS2_PLACEMENT_3D ( 'NONE', #52, #144, #53 ) ;
#23 = CC_DESIGN_PERSON_AND_ORGANIZATION_ASSIGNMENT ( #190, #54, ( #187 ) ) ;
#24 = CARTESIAN_POINT ( 'NONE',  ( 4.340963183425632718E-14, -1.522604920913069059E-15, 12.43301270189221874 ) ) ;
#25 = EDGE_CURVE ( 'NONE', #193, #193, #163, .T. ) ;
#26 = DIRECTION ( 'NONE',  ( 3.491481338843133355E-15, -1.224646799147353207E-16, 1.000000000000000000 ) ) ;
#27 = CIRCLE ( 'NONE', #148, 0.7500000000000000000 ) ;
#28 = PRODUCT_DEFINITION_SHAPE ( 'NONE', 'NONE',  #152 ) ;
#29 = DIRECTION ( 'NONE',  ( 0.0000000000000000000, 1.000000000000000000, 0.0000000000000000000 ) ) ;
#30 = CARTESIAN_POINT ( 'NONE',  ( 0.0000000000000000000, 0.0000000000000000000, 0.0000000000000000000 ) ) ;
#31 = AXIS2_PLACEMENT_3D ( 'NONE', #71, #216, #220 ) ;
#32 = CC_DESIGN_APPROVAL ( #159, ( #187 ) ) ;
#33 = EDGE_LOOP ( 'NONE', ( #198 ) ) ;
#34 = AXIS2_PLACEMENT_3D ( 'NONE', #128, #173, #149 ) ;
#35 = DATE_AND_TIME ( #91, #157 ) ;
#36 = APPROVAL_STATUS ( 'not_yet_approved' ) ;
#37 = FACE_OUTER_BOUND ( 'NONE', #10, .T. ) ;
#38 = MECHANICAL_CONTEXT ( 'NONE', #64, 'mechanical' ) ;
#39 = EDGE_LOOP ( 'NONE', ( #108 ) ) ;
#40 = TOROIDAL_SURFACE ( 'NONE', #179, 1.250000000000000000, 0.5000000000000003331 ) ;
#41 = PLANE ( 'NONE',  #210 ) ;
#42 = ADVANCED_FACE ( 'NONE', ( #37 ), #240, .F. ) ;
#43 = FACE_OUTER_BOUND ( 'NONE', #102, .T. ) ;
#44 = CARTESIAN_POINT ( 'NONE',  ( 4.340963183425632718E-14, 5.624099184981943450E-33, 12.43301270189221874 ) ) ;
#45 = VERTEX_POINT ( 'NONE', #60 ) ;
#46 = AXIS2_PLACEMENT_3D ( 'NONE', #13, #85, #63 ) ;
#47 = CARTESIAN_POINT ( 'NONE',  ( 4.599399971221623448E-14, -1.642876589630682350E-15, 13.17320508075689034 ) ) ;
#48 = SECURITY_CLASSIFICATION ( '', '', #133 ) ;
#49 = CALENDAR_DATE ( 2021, 10, 11 ) ;
#50 = EDGE_LOOP ( 'NONE', ( #188 ) ) ;
#51 = APPROVAL_DATE_TIME ( #143, #104 ) ;
#52 = CARTESIAN_POINT ( 'NONE',  ( 0.0000000000000000000, 0.0000000000000000000, 0.0000000000000000000 ) ) ;
#53 = DIRECTION ( 'NONE',  ( 4.275831445896958607E-31, 1.000000000000000000, 1.224646799147352961E-16 ) ) ;
#54 = PERSON_AND_ORGANIZATION_ROLE ( 'creator' ) ;
#55 = DIRECTION ( 'NONE',  ( -3.491481338843133355E-15, 1.224646799147353207E-16, -1.000000000000000000 ) ) ;
#56 = APPROVAL_PERSON_ORGANIZATION ( #75, #104, #105 ) ;
#57 = CARTESIAN_POINT ( 'NONE',  ( 4.538925740496073993E-14, -0.9999999999999993339, 13.00000000000000178 ) ) ;
#58 = DESIGN_CONTEXT ( 'detailed design', #17, 'design' ) ;
#59 = CYLINDRICAL_SURFACE ( 'NONE', #170, 0.7500000000000000000 ) ;
#60 = CARTESIAN_POINT ( 'NONE',  ( 1.319779946082704535E-13, 0.9999999999999947820, 37.79999999999999716 ) ) ;
#61 = AXIS2_PLACEMENT_3D ( 'NONE', #44, #26, #114 ) ;
#62 = CARTESIAN_POINT ( 'NONE',  ( 1.326762908760390423E-13, 5.999039130647358587E-33, 38.00000000000000000 ) ) ;
#63 = DIRECTION ( 'NONE',  ( 0.0000000000000000000, -1.000000000000000000, 0.0000000000000000000 ) ) ;
#64 = APPLICATION_CONTEXT ( 'configuration controlled 3d designs of mechanical parts and assemblies' ) ;
#65 = EDGE_CURVE ( 'NONE', #192, #192, #221, .T. ) ;
#66 = EDGE_CURVE ( 'NONE', #45, #45, #93, .T. ) ;
#67 = AXIS2_PLACEMENT_3D ( 'NONE', #7, #228, #160 ) ;
#68 = PERSON_AND_ORGANIZATION_ROLE ( 'design_supplier' ) ;
#69 = EDGE_LOOP ( 'NONE', ( #111 ) ) ;
#70 = EDGE_LOOP ( 'NONE', ( #154 ) ) ;
#71 = CARTESIAN_POINT ( 'NONE',  ( 0.0000000000000000000, 0.0000000000000000000, 0.0000000000000000000 ) ) ;
#72 = ORIENTED_EDGE ( 'NONE', *, *, #66, .T. ) ;
#73 = AXIS2_PLACEMENT_3D ( 'NONE', #151, #213, #87 ) ;
#74 = PERSON_AND_ORGANIZATION ( #81, #165 ) ;
#75 = PERSON_AND_ORGANIZATION ( #81, #165 ) ;
#76 = DIRECTION ( 'NONE',  ( -3.491481338843133355E-15, 1.224646799147353207E-16, -1.000000000000000000 ) ) ;
#77 = AXIS2_PLACEMENT_3D ( 'NONE', #242, #55, #92 ) ;
#78 = CC_DESIGN_DATE_AND_TIME_ASSIGNMENT ( #168, #164, ( #152 ) ) ;
#79 =( NAMED_UNIT ( * ) PLANE_ANGLE_UNIT ( ) SI_UNIT ( $, .RADIAN. ) );
#80 = CARTESIAN_POINT ( 'NONE',  ( 4.340963183425632718E-14, 0.7499999999999984457, 12.43301270189221874 ) ) ;
#81 = PERSON ( 'UNSPECIFIED', 'UNSPECIFIED', 'UNSPECIFIED', ('UNSPECIFIED'), ('UNSPECIFIED'), ('UNSPECIFIED') ) ;
#82 = AXIS2_PLACEMENT_3D ( 'NONE', #219, #110, #18 ) ;
#83 = ADVANCED_FACE ( 'NONE', ( #113, #214 ), #117, .T. ) ;
#84 = ORIENTED_EDGE ( 'NONE', *, *, #66, .F. ) ;
#85 = DIRECTION ( 'NONE',  ( -3.491481338843133355E-15, 1.247135059052984700E-16, -1.000000000000000000 ) ) ;
#86 = CIRCLE ( 'NONE', #46, 0.9999999999999978906 ) ;
#87 = DIRECTION ( 'NONE',  ( 0.0000000000000000000, 1.000000000000000000, 0.0000000000000000000 ) ) ;
#88 = CALENDAR_DATE ( 2021, 10, 11 ) ;
#89 = CYLINDRICAL_SURFACE ( 'NONE', #22, 0.9999999999999978906 ) ;
#90 = EDGE_CURVE ( 'NONE', #191, #191, #86, .T. ) ;
#91 = CALENDAR_DATE ( 2021, 10, 11 ) ;
#92 = DIRECTION ( 'NONE',  ( 0.0000000000000000000, 1.000000000000000000, 0.0000000000000000000 ) ) ;
#93 = CIRCLE ( 'NONE', #77, 0.9999999999999993339 ) ;
#94 = COORDINATED_UNIVERSAL_TIME_OFFSET ( 1, 0, .AHEAD. ) ;
#95 = MANIFOLD_SOLID_BREP ( 'Corps-Déplacer/Copier1[1]', #124 ) ;
#96 = DIRECTION ( 'NONE',  ( 0.0000000000000000000, 1.000000000000000000, 0.0000000000000000000 ) ) ;
#97 = CC_DESIGN_PERSON_AND_ORGANIZATION_ASSIGNMENT ( #109, #127, ( #48 ) ) ;
#98 = CARTESIAN_POINT ( 'NONE',  ( 1.326762908760390423E-13, 0.7999999999999949374, 38.00000000000000000 ) ) ;
#99 = FACE_OUTER_BOUND ( 'NONE', #33, .T. ) ;
#100 = PRODUCT ( '961881', '961881', '', ( #38 ) ) ;
#101 = DIRECTION ( 'NONE',  ( 3.491481338843133355E-15, -1.247135059052984700E-16, 1.000000000000000000 ) ) ;
#102 = EDGE_LOOP ( 'NONE', ( #131 ) ) ;
#103 = CONICAL_SURFACE ( 'NONE', #67, 1732.050807568886512, 1.047197551196600074 ) ;
#104 = APPROVAL ( #150, 'UNSPECIFIED' ) ;
#105 = APPROVAL_ROLE ( '' ) ;
#106 = APPROVAL_STATUS ( 'not_yet_approved' ) ;
#107 = ADVANCED_FACE ( 'NONE', ( #140, #169 ), #234, .T. ) ;
#108 = ORIENTED_EDGE ( 'NONE', *, *, #90, .T. ) ;
#109 = PERSON_AND_ORGANIZATION ( #81, #165 ) ;
#110 = DIRECTION ( 'NONE',  ( -3.491481338843133355E-15, 1.224646799147353207E-16, -1.000000000000000000 ) ) ;
#111 = ORIENTED_EDGE ( 'NONE', *, *, #121, .T. ) ;
#112 = APPROVAL_ROLE ( '' ) ;
#113 = FACE_BOUND ( 'NONE', #69, .T. ) ;
#114 = DIRECTION ( 'NONE',  ( -4.275831445896958607E-31, -1.000000000000000000, -1.224646799147353207E-16 ) ) ;
#115 = EDGE_CURVE ( 'NONE', #138, #138, #230, .T. ) ;
#116 = CC_DESIGN_PERSON_AND_ORGANIZATION_ASSIGNMENT ( #74, #68, ( #187 ) ) ;
#117 = CONICAL_SURFACE ( 'NONE', #175, 1.099999999999998090, 0.5235987755982938197 ) ;
#118 = DIRECTION ( 'NONE',  ( -3.491481338843133355E-15, 1.224646799147353207E-16, -1.000000000000000000 ) ) ;
#119 = CARTESIAN_POINT ( 'NONE',  ( 4.428250216896710106E-14, -0.8169872981077802576, 12.68301270189221697 ) ) ;
#120 = FACE_OUTER_BOUND ( 'NONE', #1, .T. ) ;
#121 = EDGE_CURVE ( 'NONE', #211, #211, #9, .T. ) ;
#122 = LOCAL_TIME ( 13, 11, 23.00000000000000000, #200 ) ;
#123 = CC_DESIGN_APPROVAL ( #11, ( #48 ) ) ;
#124 = CLOSED_SHELL ( 'NONE', ( #5, #107, #142, #83, #42, #180 ) ) ;
#125 = DIRECTION ( 'NONE',  ( 3.491481338843133355E-15, -1.247135059052984700E-16, 1.000000000000000000 ) ) ;
#126 = APPROVAL_PERSON_ORGANIZATION ( #14, #11, #134 ) ;
#127 = PERSON_AND_ORGANIZATION_ROLE ( 'classification_officer' ) ;
#128 = CARTESIAN_POINT ( 'NONE',  ( 4.340963183425632718E-14, 5.624099184981943450E-33, 12.43301270189221874 ) ) ;
#129 = PERSON_AND_ORGANIZATION ( #81, #165 ) ;
#130 = AXIS2_PLACEMENT_3D ( 'NONE', #231, #101, #162 ) ;
#131 = ORIENTED_EDGE ( 'NONE', *, *, #65, .T. ) ;
#132 = DIRECTION ( 'NONE',  ( -3.491481338843133355E-15, 1.224646799147353207E-16, -1.000000000000000000 ) ) ;
#133 = SECURITY_CLASSIFICATION_LEVEL ( 'unclassified' ) ;
#134 = APPROVAL_ROLE ( '' ) ;
#135 = APPROVAL_PERSON_ORGANIZATION ( #241, #159, #112 ) ;
#136 = DIRECTION ( 'NONE',  ( -3.491481338843133355E-15, 1.224646799147353207E-16, -1.000000000000000000 ) ) ;
#137 = PLANE ( 'NONE',  #61 ) ;
#138 = VERTEX_POINT ( 'NONE', #98 ) ;
#139 = DIRECTION ( 'NONE',  ( 4.275831445896958607E-31, 1.000000000000000000, 1.224646799147353207E-16 ) ) ;
#140 = FACE_OUTER_BOUND ( 'NONE', #204, .T. ) ;
#141 = CC_DESIGN_PERSON_AND_ORGANIZATION_ASSIGNMENT ( #129, #166, ( #100 ) ) ;
#142 = ADVANCED_FACE ( 'NONE', ( #8 ), #41, .F. ) ;
#143 = DATE_AND_TIME ( #19, #197 ) ;
#144 = DIRECTION ( 'NONE',  ( -3.491481338843133355E-15, 1.224646799147353207E-16, -1.000000000000000000 ) ) ;
#145 = ORIENTED_EDGE ( 'NONE', *, *, #25, .T. ) ;
#146 = MANIFOLD_SOLID_BREP ( 'Corps-Déplacer/Copier1[2]', #4 ) ;
#147 = EDGE_CURVE ( 'NONE', #3, #3, #27, .T. ) ;
#148 = AXIS2_PLACEMENT_3D ( 'NONE', #2, #177, #178 ) ;
#149 = DIRECTION ( 'NONE',  ( -4.275831445896958607E-31, -1.000000000000000000, -1.224646799147353207E-16 ) ) ;
#150 = APPROVAL_STATUS ( 'not_yet_approved' ) ;
#151 = CARTESIAN_POINT ( 'NONE',  ( 1.326762908760390423E-13, -4.653657836759941941E-15, 38.00000000000000000 ) ) ;
#152 = PRODUCT_DEFINITION ( 'UNKNOWN', '', #187, #58 ) ;
#153 = ORIENTED_EDGE ( 'NONE', *, *, #65, .F. ) ;
#154 = ORIENTED_EDGE ( 'NONE', *, *, #25, .F. ) ;
#155 =( NAMED_UNIT ( * ) SI_UNIT ( $, .STERADIAN. ) SOLID_ANGLE_UNIT ( ) );
#156 = AXIS2_PLACEMENT_3D ( 'NONE', #24, #132, #96 ) ;
#157 = LOCAL_TIME ( 13, 11, 23.00000000000000000, #94 ) ;
#158 = DIRECTION ( 'NONE',  ( 4.275831445896958607E-31, 1.000000000000000000, 1.224646799147353207E-16 ) ) ;
#159 = APPROVAL ( #36, 'UNSPECIFIED' ) ;
#160 = DIRECTION ( 'NONE',  ( -4.554490559825206315E-31, -1.000000000000000000, -1.281975124255702555E-16 ) ) ;
#161 = UNCERTAINTY_MEASURE_WITH_UNIT (LENGTH_MEASURE( 1.000000000000000082E-05 ), #212, 'distance_accuracy_value', 'NONE');
#162 = DIRECTION ( 'NONE',  ( 0.0000000000000000000, -1.000000000000000000, 0.0000000000000000000 ) ) ;
#163 = CIRCLE ( 'NONE', #156, 0.7500000000000000000 ) ;
#164 = DATE_TIME_ROLE ( 'creation_date' ) ;
#165 = ORGANIZATION ( 'UNSPECIFIED', 'UNSPECIFIED', '' ) ;
#166 = PERSON_AND_ORGANIZATION_ROLE ( 'design_owner' ) ;
#167 = EDGE_LOOP ( 'NONE', ( #215 ) ) ;
#168 = DATE_AND_TIME ( #16, #122 ) ;
#169 = FACE_BOUND ( 'NONE', #167, .T. ) ;
#170 = AXIS2_PLACEMENT_3D ( 'NONE', #30, #136, #174 ) ;
#171 = EDGE_LOOP ( 'NONE', ( #206 ) ) ;
#172 = APPROVAL_DATE_TIME ( #205, #11 ) ;
#173 = DIRECTION ( 'NONE',  ( 3.491481338843133355E-15, -1.224646799147353207E-16, 1.000000000000000000 ) ) ;
#174 = DIRECTION ( 'NONE',  ( 4.275831445896959482E-31, 1.000000000000000000, 1.224646799147353207E-16 ) ) ;
#175 = AXIS2_PLACEMENT_3D ( 'NONE', #47, #125, #233 ) ;
#176 = CARTESIAN_POINT ( 'NONE',  ( 1.326762908760390423E-13, -4.653657836759941941E-15, 38.00000000000000000 ) ) ;
#177 = DIRECTION ( 'NONE',  ( -3.491481338843133355E-15, 1.224646799147353207E-16, -1.000000000000000000 ) ) ;
#178 = DIRECTION ( 'NONE',  ( 0.0000000000000000000, 1.000000000000000000, 0.0000000000000000000 ) ) ;
#179 = AXIS2_PLACEMENT_3D ( 'NONE', #209, #196, #158 ) ;
#180 = ADVANCED_FACE ( 'NONE', ( #6, #208 ), #40, .F. ) ;
#181 = ORIENTED_EDGE ( 'NONE', *, *, #121, .F. ) ;
#182 = LOCAL_TIME ( 13, 11, 23.00000000000000000, #184 ) ;
#183 = ADVANCED_BREP_SHAPE_REPRESENTATION ( '961881', ( #95, #146, #31 ), #207 ) ;
#184 = COORDINATED_UNIVERSAL_TIME_OFFSET ( 1, 0, .AHEAD. ) ;
#185 = PERSON_AND_ORGANIZATION ( #81, #165 ) ;
#186 = AXIS2_PLACEMENT_3D ( 'NONE', #176, #76, #29 ) ;
#187 = PRODUCT_DEFINITION_FORMATION_WITH_SPECIFIED_SOURCE ( 'ANY', '', #100, .NOT_KNOWN. ) ;
#188 = ORIENTED_EDGE ( 'NONE', *, *, #115, .F. ) ;
#189 = DATE_TIME_ROLE ( 'classification_date' ) ;
#190 = PERSON_AND_ORGANIZATION ( #81, #165 ) ;
#191 = VERTEX_POINT ( 'NONE', #57 ) ;
#192 = VERTEX_POINT ( 'NONE', #229 ) ;
#193 = VERTEX_POINT ( 'NONE', #80 ) ;
#194 = CARTESIAN_POINT ( 'NONE',  ( 4.340963183425632718E-14, 0.7499999999999984457, 12.43301270189221874 ) ) ;
#195 = CC_DESIGN_DATE_AND_TIME_ASSIGNMENT ( #35, #189, ( #48 ) ) ;
#196 = DIRECTION ( 'NONE',  ( -3.491481338843133355E-15, 1.224646799147353207E-16, -1.000000000000000000 ) ) ;
#197 = LOCAL_TIME ( 13, 11, 23.00000000000000000, #225 ) ;
#198 = ORIENTED_EDGE ( 'NONE', *, *, #147, .F. ) ;
#199 = APPLICATION_PROTOCOL_DEFINITION ( 'international standard', 'config_control_design', 1994, #17 ) ;
#200 = COORDINATED_UNIVERSAL_TIME_OFFSET ( 1, 0, .AHEAD. ) ;
#201 = ADVANCED_FACE ( 'NONE', ( #43 ), #103, .T. ) ;
#202 = EDGE_LOOP ( 'NONE', ( #181 ) ) ;
#203 = CC_DESIGN_PERSON_AND_ORGANIZATION_ASSIGNMENT ( #185, #224, ( #152 ) ) ;
#204 = EDGE_LOOP ( 'NONE', ( #84 ) ) ;
#205 = DATE_AND_TIME ( #88, #182 ) ;
#206 = ORIENTED_EDGE ( 'NONE', *, *, #90, .F. ) ;
#207 =( GEOMETRIC_REPRESENTATION_CONTEXT ( 3 ) GLOBAL_UNCERTAINTY_ASSIGNED_CONTEXT ( ( #161 ) ) GLOBAL_UNIT_ASSIGNED_CONTEXT ( ( #212, #79, #155 ) ) REPRESENTATION_CONTEXT ( 'NONE', 'WORKASPACE' ) );
#208 = FACE_OUTER_BOUND ( 'NONE', #202, .T. ) ;
#209 = CARTESIAN_POINT ( 'NONE',  ( 4.340963183425632718E-14, -1.517883041479706208E-15, 12.43301270189221874 ) ) ;
#210 = AXIS2_PLACEMENT_3D ( 'NONE', #62, #118, #139 ) ;
#211 = VERTEX_POINT ( 'NONE', #119 ) ;
#212 =( LENGTH_UNIT ( ) NAMED_UNIT ( * ) SI_UNIT ( .MILLI., .METRE. ) );
#213 = DIRECTION ( 'NONE',  ( -3.491481338843133355E-15, 1.224646799147353207E-16, -1.000000000000000000 ) ) ;
#214 = FACE_OUTER_BOUND ( 'NONE', #39, .T. ) ;
#215 = ORIENTED_EDGE ( 'NONE', *, *, #115, .T. ) ;
#216 = DIRECTION ( 'NONE',  ( 0.0000000000000000000, 0.0000000000000000000, 1.000000000000000000 ) ) ;
#217 = ADVANCED_FACE ( 'NONE', ( #120, #227 ), #59, .T. ) ;
#218 = PRODUCT_RELATED_PRODUCT_CATEGORY ( 'detail', '', ( #100 ) ) ;
#219 = CARTESIAN_POINT ( 'NONE',  ( 1.511855768138720609E-15, -5.302876193624506841E-17, 0.4330127018922170778 ) ) ;
#220 = DIRECTION ( 'NONE',  ( 1.000000000000000000, 0.0000000000000000000, 0.0000000000000000000 ) ) ;
#221 = CIRCLE ( 'NONE', #82, 0.7500000000000001110 ) ;
#222 = LOCAL_TIME ( 13, 11, 23.00000000000000000, #21 ) ;
#223 = FACE_OUTER_BOUND ( 'NONE', #20, .T. ) ;
#224 = PERSON_AND_ORGANIZATION_ROLE ( 'creator' ) ;
#225 = COORDINATED_UNIVERSAL_TIME_OFFSET ( 1, 0, .AHEAD. ) ;
#226 = CC_DESIGN_APPROVAL ( #104, ( #152 ) ) ;
#227 = FACE_OUTER_BOUND ( 'NONE', #239, .T. ) ;
#228 = DIRECTION ( 'NONE',  ( 3.491481338843133355E-15, -1.224646799147353207E-16, 1.000000000000000000 ) ) ;
#229 = CARTESIAN_POINT ( 'NONE',  ( 1.511855768138721003E-15, 0.7500000000000001110, 0.4330127018922171889 ) ) ;
#230 = CIRCLE ( 'NONE', #186, 0.7999999999999996003 ) ;
#231 = CARTESIAN_POINT ( 'NONE',  ( 4.428250216896710106E-14, -1.581742979494410563E-15, 12.68301270189221697 ) ) ;
#232 = ADVANCED_FACE ( 'NONE', ( #99 ), #137, .T. ) ;
#233 = DIRECTION ( 'NONE',  ( 0.0000000000000000000, -1.000000000000000000, 0.0000000000000000000 ) ) ;
#234 = CONICAL_SURFACE ( 'NONE', #73, 0.7999999999999996003, 0.7853981633974507215 ) ;
#235 = APPROVAL_DATE_TIME ( #238, #159 ) ;
#236 = CC_DESIGN_SECURITY_CLASSIFICATION ( #48, ( #187 ) ) ;
#237 = ORIENTED_EDGE ( 'NONE', *, *, #147, .T. ) ;
#238 = DATE_AND_TIME ( #49, #222 ) ;
#239 = EDGE_LOOP ( 'NONE', ( #153 ) ) ;
#240 = PLANE ( 'NONE',  #34 ) ;
#241 = PERSON_AND_ORGANIZATION ( #81, #165 ) ;
#242 = CARTESIAN_POINT ( 'NONE',  ( 1.319779946082704535E-13, -4.629164900776995227E-15, 37.79999999999999716 ) ) ;
#243 = SHAPE_DEFINITION_REPRESENTATION ( #28, #183 ) ;
ENDSEC;
END-ISO-10303-21;
