ISO-10303-21;
HEADER;
FILE_DESCRIPTION (( 'STEP AP203' ),
    '1' );
FILE_NAME ('961872.step',
    '2021-11-29T14:49:35',
    ( '' ),
    ( '' ),
    'SwSTEP 2.0',
    'SolidWorks 2019',
    '' );
FILE_SCHEMA (( 'CONFIG_CONTROL_DESIGN' ));
ENDSEC;

DATA;
#1 = APPROVAL_DATE_TIME ( #161, #218 ) ;
#2 = EDGE_LOOP ( 'NONE', ( #284 ) ) ;
#3 = CARTESIAN_POINT ( 'NONE',  ( -1.169642014531629104E-31, 4.102551926338038440E-33, -3.349987873396963069E-17 ) ) ;
#4 = ADVANCED_FACE ( 'NONE', ( #206 ), #118, .F. ) ;
#5 = MECHANICAL_CONTEXT ( 'NONE', #179, 'mechanical' ) ;
#6 = CALENDAR_DATE ( 2021, 29, 11 ) ;
#7 = APPROVAL_DATE_TIME ( #76, #267 ) ;
#8 = ADVANCED_FACE ( 'NONE', ( #260 ), #97, .F. ) ;
#9 = CARTESIAN_POINT ( 'NONE',  ( 1.396592535537253342E-14, 2.875789383254102302E-33, 4.000000000000000000 ) ) ;
#10 = COORDINATED_UNIVERSAL_TIME_OFFSET ( 1, 0, .AHEAD. ) ;
#11 = ORIENTED_EDGE ( 'NONE', *, *, #265, .F. ) ;
#12 = CARTESIAN_POINT ( 'NONE',  ( 1.396592535537253342E-14, 0.3834999999999993969, 4.000000000000000000 ) ) ;
#13 = AXIS2_PLACEMENT_3D ( 'NONE', #87, #193, #130 ) ;
#14 = ORIENTED_EDGE ( 'NONE', *, *, #220, .T. ) ;
#15 = DIRECTION ( 'NONE',  ( 3.766486201539580051E-31, 1.000000000000000000, 1.060171615859360476E-16 ) ) ;
#16 = CARTESIAN_POINT ( 'NONE',  ( 5.131413161946100168E-14, -1.799857451325254460E-15, 14.69695141961245888 ) ) ;
#17 = EDGE_CURVE ( 'NONE', #246, #246, #221, .T. ) ;
#18 = SHAPE_DEFINITION_REPRESENTATION ( #154, #140 ) ;
#19 = DIRECTION ( 'NONE',  ( -3.766486201539580051E-31, -1.000000000000000000, -1.060171615859360476E-16 ) ) ;
#20 = AXIS2_PLACEMENT_3D ( 'NONE', #9, #278, #136 ) ;
#21 = CONICAL_SURFACE ( 'NONE', #147, 1.200000000000003286, 0.7853981633974453924 ) ;
#22 = VERTEX_POINT ( 'NONE', #263 ) ;
#23 = DIRECTION ( 'NONE',  ( 0.0000000000000000000, 1.000000000000000000, 0.0000000000000000000 ) ) ;
#24 = FACE_OUTER_BOUND ( 'NONE', #205, .T. ) ;
#25 = DIRECTION ( 'NONE',  ( -3.491481338843133355E-15, 1.224646799147352961E-16, -1.000000000000000000 ) ) ;
#26 = VERTEX_POINT ( 'NONE', #282 ) ;
#27 = CARTESIAN_POINT ( 'NONE',  ( 1.326762908760390423E-13, -4.653657836759941152E-15, 38.00000000000000000 ) ) ;
#28 = EDGE_CURVE ( 'NONE', #22, #22, #77, .T. ) ;
#29 = PERSON_AND_ORGANIZATION_ROLE ( 'classification_officer' ) ;
#30 = DIRECTION ( 'NONE',  ( 0.0000000000000000000, 0.0000000000000000000, 1.000000000000000000 ) ) ;
#31 = CARTESIAN_POINT ( 'NONE',  ( -2.339284029063258208E-31, 8.205103852676076880E-33, -6.699975746793926138E-17 ) ) ;
#32 =( LENGTH_UNIT ( ) NAMED_UNIT ( * ) SI_UNIT ( .MILLI., .METRE. ) );
#33 = ORIENTED_EDGE ( 'NONE', *, *, #35, .T. ) ;
#34 = TOROIDAL_SURFACE ( 'NONE', #258, 2.349999999999999645, 2.000000000000000000 ) ;
#35 = EDGE_CURVE ( 'NONE', #104, #104, #117, .T. ) ;
#36 = DATE_TIME_ROLE ( 'creation_date' ) ;
#37 = EDGE_LOOP ( 'NONE', ( #11 ) ) ;
#38 = ORIENTED_EDGE ( 'NONE', *, *, #51, .F. ) ;
#39 = DIRECTION ( 'NONE',  ( 3.491481338843133355E-15, -1.224646799147352961E-16, 1.000000000000000000 ) ) ;
#40 = EDGE_LOOP ( 'NONE', ( #98 ) ) ;
#41 = AXIS2_PLACEMENT_3D ( 'NONE', #121, #214, #15 ) ;
#42 = LOCAL_TIME ( 15, 49, 35.00000000000000000, #208 ) ;
#43 = CARTESIAN_POINT ( 'NONE',  ( 1.416851402830312905E-14, -4.969645737583982706E-16, 4.058023702053559667 ) ) ;
#44 = LOCAL_TIME ( 15, 49, 35.00000000000000000, #280 ) ;
#45 = DIRECTION ( 'NONE',  ( -3.491481338843133355E-15, 1.224646799147352961E-16, -1.000000000000000000 ) ) ;
#46 = CYLINDRICAL_SURFACE ( 'NONE', #216, 0.3499999999999994227 ) ;
#47 = CONICAL_SURFACE ( 'NONE', #159, 0.3499999999999990341, 0.5235987755982957070 ) ;
#48 = FACE_BOUND ( 'NONE', #217, .T. ) ;
#49 = DIRECTION ( 'NONE',  ( 0.0000000000000000000, 1.000000000000000000, 0.0000000000000000000 ) ) ;
#50 = FACE_OUTER_BOUND ( 'NONE', #103, .T. ) ;
#51 = EDGE_CURVE ( 'NONE', #191, #191, #279, .T. ) ;
#52 = CIRCLE ( 'NONE', #123, 0.3834999999999998965 ) ;
#53 = ORIENTED_EDGE ( 'NONE', *, *, #28, .T. ) ;
#54 = COORDINATED_UNIVERSAL_TIME_OFFSET ( 1, 0, .AHEAD. ) ;
#55 = ORIENTED_EDGE ( 'NONE', *, *, #17, .F. ) ;
#56 = DATE_AND_TIME ( #256, #42 ) ;
#57 = ORIENTED_EDGE ( 'NONE', *, *, #17, .T. ) ;
#58 = CARTESIAN_POINT ( 'NONE',  ( 1.316288464743861212E-13, 1.499999999999998668, 37.69999999999999574 ) ) ;
#59 = ORIENTED_EDGE ( 'NONE', *, *, #63, .F. ) ;
#60 = AXIS2_PLACEMENT_3D ( 'NONE', #27, #114, #49 ) ;
#61 = VERTEX_POINT ( 'NONE', #12 ) ;
#62 = EDGE_LOOP ( 'NONE', ( #119 ) ) ;
#63 = EDGE_CURVE ( 'NONE', #110, #110, #52, .T. ) ;
#64 = FACE_OUTER_BOUND ( 'NONE', #96, .T. ) ;
#65 = CC_DESIGN_PERSON_AND_ORGANIZATION_ASSIGNMENT ( #232, #75, ( #148 ) ) ;
#66 = AXIS2_PLACEMENT_3D ( 'NONE', #106, #297, #127 ) ;
#67 = FACE_OUTER_BOUND ( 'NONE', #187, .T. ) ;
#68 = DIRECTION ( 'NONE',  ( -3.491481338843133355E-15, 1.224646799147352961E-16, -1.000000000000000000 ) ) ;
#69 = CARTESIAN_POINT ( 'NONE',  ( 2.914442945444143071E-14, -1.022248976309396278E-15, 8.347296355333847728 ) ) ;
#70 = AXIS2_PLACEMENT_3D ( 'NONE', #69, #45, #151 ) ;
#71 = DIRECTION ( 'NONE',  ( -3.491481338843133355E-15, 1.224646799147352961E-16, -1.000000000000000000 ) ) ;
#72 = EDGE_LOOP ( 'NONE', ( #14 ) ) ;
#73 = PERSON_AND_ORGANIZATION_ROLE ( 'creator' ) ;
#74 = APPROVAL_STATUS ( 'not_yet_approved' ) ;
#75 = PERSON_AND_ORGANIZATION_ROLE ( 'creator' ) ;
#76 = DATE_AND_TIME ( #6, #44 ) ;
#77 = CIRCLE ( 'NONE', #215, 0.3499999999999990341 ) ;
#78 = ORIENTED_EDGE ( 'NONE', *, *, #271, .F. ) ;
#79 = FACE_OUTER_BOUND ( 'NONE', #145, .T. ) ;
#80 = EDGE_LOOP ( 'NONE', ( #33 ) ) ;
#81 = ADVANCED_FACE ( 'NONE', ( #24, #79 ), #243, .T. ) ;
#82 = AXIS2_PLACEMENT_3D ( 'NONE', #203, #303, #150 ) ;
#83 = CIRCLE ( 'NONE', #254, 1.500000000000003331 ) ;
#84 = CARTESIAN_POINT ( 'NONE',  ( 3.491481338843130890E-16, -1.224646799147352036E-17, 0.09999999999999992228 ) ) ;
#85 = ADVANCED_FACE ( 'NONE', ( #266, #67 ), #109, .T. ) ;
#86 = PRODUCT ( '961872', '961872', '', ( #5 ) ) ;
#87 = CARTESIAN_POINT ( 'NONE',  ( 1.396592535537253342E-14, 2.875789383254102302E-33, 4.000000000000000000 ) ) ;
#88 = PERSON ( 'UNSPECIFIED', 'UNSPECIFIED', 'UNSPECIFIED', ('UNSPECIFIED'), ('UNSPECIFIED'), ('UNSPECIFIED') ) ;
#89 = FACE_OUTER_BOUND ( 'NONE', #2, .T. ) ;
#90 = LOCAL_TIME ( 15, 49, 35.00000000000000000, #116 ) ;
#91 = PLANE ( 'NONE',  #152 ) ;
#92 = CARTESIAN_POINT ( 'NONE',  ( 0.0000000000000000000, 0.0000000000000000000, 0.0000000000000000000 ) ) ;
#93 = CYLINDRICAL_SURFACE ( 'NONE', #175, 1.500000000000000000 ) ;
#94 = DIRECTION ( 'NONE',  ( 1.000000000000000000, 0.0000000000000000000, 0.0000000000000000000 ) ) ;
#95 = SECURITY_CLASSIFICATION ( '', '', #135 ) ;
#96 = EDGE_LOOP ( 'NONE', ( #38 ) ) ;
#97 = PLANE ( 'NONE',  #235 ) ;
#98 = ORIENTED_EDGE ( 'NONE', *, *, #51, .T. ) ;
#99 = DATE_TIME_ROLE ( 'classification_date' ) ;
#100 =( NAMED_UNIT ( * ) PLANE_ANGLE_UNIT ( ) SI_UNIT ( $, .RADIAN. ) );
#101 = ADVANCED_FACE ( 'NONE', ( #64, #292 ), #34, .F. ) ;
#102 = CARTESIAN_POINT ( 'NONE',  ( -9.463679131915811161E-32, 0.3257649730810376898, -2.710505431213761701E-17 ) ) ;
#103 = EDGE_LOOP ( 'NONE', ( #78 ) ) ;
#104 = VERTEX_POINT ( 'NONE', #102 ) ;
#105 = CALENDAR_DATE ( 2021, 29, 11 ) ;
#106 = CARTESIAN_POINT ( 'NONE',  ( 2.793185071074506684E-14, -9.797174393178823685E-16, 8.000000000000000000 ) ) ;
#107 = FACE_OUTER_BOUND ( 'NONE', #166, .T. ) ;
#108 = ADVANCED_FACE ( 'NONE', ( #89 ), #252, .T. ) ;
#109 = CONICAL_SURFACE ( 'NONE', #146, 1.499999999999996891, 0.1745329251994259812 ) ;
#110 = VERTEX_POINT ( 'NONE', #200 ) ;
#111 = CC_DESIGN_PERSON_AND_ORGANIZATION_ASSIGNMENT ( #289, #184, ( #86 ) ) ;
#112 = CARTESIAN_POINT ( 'NONE',  ( 0.0000000000000000000, 0.0000000000000000000, 0.0000000000000000000 ) ) ;
#113 = VERTEX_POINT ( 'NONE', #156 ) ;
#114 = DIRECTION ( 'NONE',  ( -3.491481338843133355E-15, 1.224646799147352961E-16, -1.000000000000000000 ) ) ;
#115 = APPLICATION_CONTEXT ( 'configuration controlled 3d designs of mechanical parts and assemblies' ) ;
#116 = COORDINATED_UNIVERSAL_TIME_OFFSET ( 1, 0, .AHEAD. ) ;
#117 = CIRCLE ( 'NONE', #293, 0.3257649730810376898 ) ;
#118 = PLANE ( 'NONE',  #20 ) ;
#119 = ORIENTED_EDGE ( 'NONE', *, *, #271, .T. ) ;
#120 =( NAMED_UNIT ( * ) SI_UNIT ( $, .STERADIAN. ) SOLID_ANGLE_UNIT ( ) );
#121 = CARTESIAN_POINT ( 'NONE',  ( 3.491481338843130890E-16, -1.224646799147352036E-17, 0.09999999999999992228 ) ) ;
#122 = EDGE_LOOP ( 'NONE', ( #240 ) ) ;
#123 = AXIS2_PLACEMENT_3D ( 'NONE', #192, #129, #250 ) ;
#124 = APPROVAL ( #164, 'UNSPECIFIED' ) ;
#125 = DIRECTION ( 'NONE',  ( -3.491481338843133355E-15, 1.224646799147352961E-16, -1.000000000000000000 ) ) ;
#126 = PRODUCT_DEFINITION_FORMATION_WITH_SPECIFIED_SOURCE ( 'ANY', '', #86, .NOT_KNOWN. ) ;
#127 = DIRECTION ( 'NONE',  ( 0.0000000000000000000, 1.000000000000000000, 0.0000000000000000000 ) ) ;
#128 = DIRECTION ( 'NONE',  ( -3.491481338843133355E-15, 1.224646799147352961E-16, -1.000000000000000000 ) ) ;
#129 = DIRECTION ( 'NONE',  ( -3.491481338843133355E-15, 1.224646799147352961E-16, -1.000000000000000000 ) ) ;
#130 = DIRECTION ( 'NONE',  ( -4.275831445896957731E-31, -1.000000000000000000, -1.224646799147352961E-16 ) ) ;
#131 = AXIS2_PLACEMENT_3D ( 'NONE', #143, #30, #94 ) ;
#132 = DIRECTION ( 'NONE',  ( 0.0000000000000000000, 1.000000000000000000, 0.0000000000000000000 ) ) ;
#133 = CARTESIAN_POINT ( 'NONE',  ( 1.316288464743861212E-13, -4.616918432785520292E-15, 37.69999999999999574 ) ) ;
#134 = ORIENTED_EDGE ( 'NONE', *, *, #63, .T. ) ;
#135 = SECURITY_CLASSIFICATION_LEVEL ( 'unclassified' ) ;
#136 = DIRECTION ( 'NONE',  ( -4.275831445896957731E-31, -1.000000000000000000, -1.224646799147352961E-16 ) ) ;
#137 = PERSON_AND_ORGANIZATION ( #88, #222 ) ;
#138 = ORIENTED_EDGE ( 'NONE', *, *, #220, .F. ) ;
#139 = VERTEX_POINT ( 'NONE', #58 ) ;
#140 = ADVANCED_BREP_SHAPE_REPRESENTATION ( '961872', ( #182, #270, #131 ), #226 ) ;
#141 = CIRCLE ( 'NONE', #60, 1.200000000000003286 ) ;
#142 = PERSON_AND_ORGANIZATION ( #88, #222 ) ;
#143 = CARTESIAN_POINT ( 'NONE',  ( 0.0000000000000000000, 0.0000000000000000000, 0.0000000000000000000 ) ) ;
#144 = APPLICATION_PROTOCOL_DEFINITION ( 'international standard', 'config_control_design', 1994, #115 ) ;
#145 = EDGE_LOOP ( 'NONE', ( #211 ) ) ;
#146 = AXIS2_PLACEMENT_3D ( 'NONE', #16, #189, #262 ) ;
#147 = AXIS2_PLACEMENT_3D ( 'NONE', #171, #274, #132 ) ;
#148 = PRODUCT_DEFINITION ( 'UNKNOWN', '', #126, #281 ) ;
#149 = DIRECTION ( 'NONE',  ( -3.491481338843133355E-15, 1.224646799147352961E-16, -1.000000000000000000 ) ) ;
#150 = DIRECTION ( 'NONE',  ( 0.0000000000000000000, 1.000000000000000000, 0.0000000000000000000 ) ) ;
#151 = DIRECTION ( 'NONE',  ( 0.0000000000000000000, 1.000000000000000000, 0.0000000000000000000 ) ) ;
#152 = AXIS2_PLACEMENT_3D ( 'NONE', #173, #149, #269 ) ;
#153 = DIRECTION ( 'NONE',  ( 0.0000000000000000000, 1.000000000000000000, 0.0000000000000000000 ) ) ;
#154 = PRODUCT_DEFINITION_SHAPE ( 'NONE', 'NONE',  #148 ) ;
#155 = FACE_BOUND ( 'NONE', #185, .T. ) ;
#156 = CARTESIAN_POINT ( 'NONE',  ( 1.326762908760390423E-13, 1.199999999999998845, 38.00000000000000000 ) ) ;
#157 = ORIENTED_EDGE ( 'NONE', *, *, #265, .T. ) ;
#158 = ADVANCED_FACE ( 'NONE', ( #50, #48 ), #21, .T. ) ;
#159 = AXIS2_PLACEMENT_3D ( 'NONE', #174, #68, #153 ) ;
#160 = PERSON_AND_ORGANIZATION ( #88, #222 ) ;
#161 = DATE_AND_TIME ( #204, #90 ) ;
#162 = EDGE_LOOP ( 'NONE', ( #138 ) ) ;
#163 = ADVANCED_FACE ( 'NONE', ( #272 ), #91, .F. ) ;
#164 = APPROVAL_STATUS ( 'not_yet_approved' ) ;
#165 = CC_DESIGN_APPROVAL ( #218, ( #148 ) ) ;
#166 = EDGE_LOOP ( 'NONE', ( #59 ) ) ;
#167 = ORIENTED_EDGE ( 'NONE', *, *, #28, .F. ) ;
#168 = APPROVAL_PERSON_ORGANIZATION ( #212, #124, #259 ) ;
#169 = ADVANCED_FACE ( 'NONE', ( #155, #199 ), #180, .T. ) ;
#170 = DIRECTION ( 'NONE',  ( 4.275831445896957731E-31, 1.000000000000000000, 1.224646799147352961E-16 ) ) ;
#171 = CARTESIAN_POINT ( 'NONE',  ( 1.326762908760390423E-13, -4.653657836759941152E-15, 38.00000000000000000 ) ) ;
#172 = CC_DESIGN_DATE_AND_TIME_ASSIGNMENT ( #237, #36, ( #148 ) ) ;
#173 = CARTESIAN_POINT ( 'NONE',  ( 1.326762908760390423E-13, 8.998558695971099120E-33, 38.00000000000000000 ) ) ;
#174 = CARTESIAN_POINT ( 'NONE',  ( 1.416851402830312905E-14, -4.969645737583982706E-16, 4.058023702053559667 ) ) ;
#175 = AXIS2_PLACEMENT_3D ( 'NONE', #112, #177, #230 ) ;
#176 = FACE_OUTER_BOUND ( 'NONE', #290, .T. ) ;
#177 = DIRECTION ( 'NONE',  ( -3.491481338843133355E-15, 1.224646799147352961E-16, -1.000000000000000000 ) ) ;
#178 = APPROVAL_ROLE ( '' ) ;
#179 = APPLICATION_CONTEXT ( 'configuration controlled 3d designs of mechanical parts and assemblies' ) ;
#180 = CONICAL_SURFACE ( 'NONE', #186, 0.3834999999999994524, 0.5235987755982927094 ) ;
#181 = CALENDAR_DATE ( 2021, 29, 11 ) ;
#182 = MANIFOLD_SOLID_BREP ( 'Corps-Déplacer/Copier1[1]', #287 ) ;
#183 = ADVANCED_FACE ( 'NONE', ( #228, #268 ), #93, .T. ) ;
#184 = PERSON_AND_ORGANIZATION_ROLE ( 'design_owner' ) ;
#185 = EDGE_LOOP ( 'NONE', ( #238 ) ) ;
#186 = AXIS2_PLACEMENT_3D ( 'NONE', #84, #227, #19 ) ;
#187 = EDGE_LOOP ( 'NONE', ( #213 ) ) ;
#188 = CC_DESIGN_PERSON_AND_ORGANIZATION_ASSIGNMENT ( #137, #73, ( #126 ) ) ;
#189 = DIRECTION ( 'NONE',  ( 3.491481338843133355E-15, -1.224646799147352961E-16, 1.000000000000000000 ) ) ;
#190 = CIRCLE ( 'NONE', #70, 0.3803844939755809951 ) ;
#191 = VERTEX_POINT ( 'NONE', #197 ) ;
#192 = CARTESIAN_POINT ( 'NONE',  ( 1.396592535537253342E-14, -4.898587196589411843E-16, 4.000000000000000000 ) ) ;
#193 = DIRECTION ( 'NONE',  ( 3.491481338843133355E-15, -1.224646799147352961E-16, 1.000000000000000000 ) ) ;
#194 = LOCAL_TIME ( 15, 49, 35.00000000000000000, #10 ) ;
#195 = EDGE_CURVE ( 'NONE', #26, #26, #301, .T. ) ;
#196 = CARTESIAN_POINT ( 'NONE',  ( 2.793185071074506684E-14, -8.673617379884035472E-16, 8.000000000000000000 ) ) ;
#197 = CARTESIAN_POINT ( 'NONE',  ( 2.793185071074506684E-14, 0.3499999999999987566, 8.000000000000000000 ) ) ;
#198 = VERTEX_POINT ( 'NONE', #299 ) ;
#199 = FACE_OUTER_BOUND ( 'NONE', #207, .T. ) ;
#200 = CARTESIAN_POINT ( 'NONE',  ( 1.396592535537253342E-14, 0.3834999999999993969, 4.000000000000000000 ) ) ;
#201 = CC_DESIGN_SECURITY_CLASSIFICATION ( #95, ( #126 ) ) ;
#202 = CC_DESIGN_DATE_AND_TIME_ASSIGNMENT ( #56, #99, ( #95 ) ) ;
#203 = CARTESIAN_POINT ( 'NONE',  ( 1.396592535537253342E-14, -4.898587196589411843E-16, 4.000000000000000000 ) ) ;
#204 = CALENDAR_DATE ( 2021, 29, 11 ) ;
#205 = EDGE_LOOP ( 'NONE', ( #55 ) ) ;
#206 = FACE_OUTER_BOUND ( 'NONE', #253, .T. ) ;
#207 = EDGE_LOOP ( 'NONE', ( #57 ) ) ;
#208 = COORDINATED_UNIVERSAL_TIME_OFFSET ( 1, 0, .AHEAD. ) ;
#209 = PERSON_AND_ORGANIZATION ( #88, #222 ) ;
#210 = DIRECTION ( 'NONE',  ( -3.491481338843133355E-15, 1.224646799147352961E-16, -1.000000000000000000 ) ) ;
#211 = ORIENTED_EDGE ( 'NONE', *, *, #291, .T. ) ;
#212 = PERSON_AND_ORGANIZATION ( #88, #222 ) ;
#213 = ORIENTED_EDGE ( 'NONE', *, *, #195, .T. ) ;
#214 = DIRECTION ( 'NONE',  ( -3.491481338843133355E-15, 1.224646799147352961E-16, -1.000000000000000000 ) ) ;
#215 = AXIS2_PLACEMENT_3D ( 'NONE', #43, #210, #229 ) ;
#216 = AXIS2_PLACEMENT_3D ( 'NONE', #296, #251, #273 ) ;
#217 = EDGE_LOOP ( 'NONE', ( #157 ) ) ;
#218 = APPROVAL ( #74, 'UNSPECIFIED' ) ;
#219 = DIRECTION ( 'NONE',  ( 4.275831445896957731E-31, 1.000000000000000000, 1.224646799147352961E-16 ) ) ;
#220 = EDGE_CURVE ( 'NONE', #198, #198, #190, .T. ) ;
#221 = CIRCLE ( 'NONE', #41, 0.3834999999999994524 ) ;
#222 = ORGANIZATION ( 'UNSPECIFIED', 'UNSPECIFIED', '' ) ;
#223 = DIRECTION ( 'NONE',  ( -3.491481338843133355E-15, 1.224646799147352961E-16, -1.000000000000000000 ) ) ;
#224 = DIRECTION ( 'NONE',  ( 4.275831445896957731E-31, 1.000000000000000000, 1.224646799147352961E-16 ) ) ;
#225 = CARTESIAN_POINT ( 'NONE',  ( 3.491481338843132369E-16, 0.3834999999999994524, 0.09999999999999996392 ) ) ;
#226 =( GEOMETRIC_REPRESENTATION_CONTEXT ( 3 ) GLOBAL_UNCERTAINTY_ASSIGNED_CONTEXT ( ( #255 ) ) GLOBAL_UNIT_ASSIGNED_CONTEXT ( ( #32, #100, #120 ) ) REPRESENTATION_CONTEXT ( 'NONE', 'WORKASPACE' ) );
#227 = DIRECTION ( 'NONE',  ( 3.491481338843133355E-15, -1.224646799147352961E-16, 1.000000000000000000 ) ) ;
#228 = FACE_OUTER_BOUND ( 'NONE', #122, .T. ) ;
#229 = DIRECTION ( 'NONE',  ( 0.0000000000000000000, 1.000000000000000000, 0.0000000000000000000 ) ) ;
#230 = DIRECTION ( 'NONE',  ( 4.275831445896957731E-31, 1.000000000000000000, 1.224646799147353207E-16 ) ) ;
#231 = LOCAL_TIME ( 15, 49, 35.00000000000000000, #54 ) ;
#232 = PERSON_AND_ORGANIZATION ( #88, #222 ) ;
#233 = CC_DESIGN_PERSON_AND_ORGANIZATION_ASSIGNMENT ( #160, #234, ( #126 ) ) ;
#234 = PERSON_AND_ORGANIZATION_ROLE ( 'design_supplier' ) ;
#235 = AXIS2_PLACEMENT_3D ( 'NONE', #3, #39, #275 ) ;
#236 = AXIS2_PLACEMENT_3D ( 'NONE', #92, #223, #170 ) ;
#237 = DATE_AND_TIME ( #181, #231 ) ;
#238 = ORIENTED_EDGE ( 'NONE', *, *, #35, .F. ) ;
#239 = APPROVAL_STATUS ( 'not_yet_approved' ) ;
#240 = ORIENTED_EDGE ( 'NONE', *, *, #195, .F. ) ;
#241 = ADVANCED_FACE ( 'NONE', ( #107, #298 ), #47, .T. ) ;
#242 = CIRCLE ( 'NONE', #82, 0.3834999999999998965 ) ;
#243 = CYLINDRICAL_SURFACE ( 'NONE', #236, 0.3834999999999996745 ) ;
#244 = CARTESIAN_POINT ( 'NONE',  ( 5.131413161946100168E-14, -1.799857451325254460E-15, 14.69695141961245888 ) ) ;
#245 = ADVANCED_FACE ( 'NONE', ( #176, #247 ), #46, .T. ) ;
#246 = VERTEX_POINT ( 'NONE', #225 ) ;
#247 = FACE_OUTER_BOUND ( 'NONE', #40, .T. ) ;
#248 = APPROVAL_PERSON_ORGANIZATION ( #209, #267, #276 ) ;
#249 = DATE_AND_TIME ( #105, #194 ) ;
#250 = DIRECTION ( 'NONE',  ( 0.0000000000000000000, 1.000000000000000000, 0.0000000000000000000 ) ) ;
#251 = DIRECTION ( 'NONE',  ( -3.491481338843133355E-15, 1.224646799147352961E-16, -1.000000000000000000 ) ) ;
#252 = PLANE ( 'NONE',  #13 ) ;
#253 = EDGE_LOOP ( 'NONE', ( #134 ) ) ;
#254 = AXIS2_PLACEMENT_3D ( 'NONE', #133, #25, #302 ) ;
#255 = UNCERTAINTY_MEASURE_WITH_UNIT (LENGTH_MEASURE( 1.000000000000000082E-05 ), #32, 'distance_accuracy_value', 'NONE');
#256 = CALENDAR_DATE ( 2021, 29, 11 ) ;
#257 = APPROVAL_PERSON_ORGANIZATION ( #283, #218, #178 ) ;
#258 = AXIS2_PLACEMENT_3D ( 'NONE', #196, #128, #224 ) ;
#259 = APPROVAL_ROLE ( '' ) ;
#260 = FACE_OUTER_BOUND ( 'NONE', #80, .T. ) ;
#261 = EDGE_LOOP ( 'NONE', ( #53 ) ) ;
#262 = DIRECTION ( 'NONE',  ( 0.0000000000000000000, -1.000000000000000000, 0.0000000000000000000 ) ) ;
#263 = CARTESIAN_POINT ( 'NONE',  ( 1.416851402830312905E-14, 0.3499999999999985345, 4.058023702053559667 ) ) ;
#264 = CC_DESIGN_APPROVAL ( #124, ( #95 ) ) ;
#265 = EDGE_CURVE ( 'NONE', #113, #113, #141, .T. ) ;
#266 = FACE_BOUND ( 'NONE', #162, .T. ) ;
#267 = APPROVAL ( #239, 'UNSPECIFIED' ) ;
#268 = FACE_OUTER_BOUND ( 'NONE', #62, .T. ) ;
#269 = DIRECTION ( 'NONE',  ( 4.275831445896957731E-31, 1.000000000000000000, 1.224646799147352961E-16 ) ) ;
#270 = MANIFOLD_SOLID_BREP ( 'Corps-Déplacer/Copier1[2]', #277 ) ;
#271 = EDGE_CURVE ( 'NONE', #139, #139, #83, .T. ) ;
#272 = FACE_OUTER_BOUND ( 'NONE', #37, .T. ) ;
#273 = DIRECTION ( 'NONE',  ( 4.275831445896957731E-31, 1.000000000000000000, 1.224646799147352961E-16 ) ) ;
#274 = DIRECTION ( 'NONE',  ( -3.491481338843133355E-15, 1.224646799147352961E-16, -1.000000000000000000 ) ) ;
#275 = DIRECTION ( 'NONE',  ( -4.275831445896957731E-31, -1.000000000000000000, -1.224646799147352961E-16 ) ) ;
#276 = APPROVAL_ROLE ( '' ) ;
#277 = CLOSED_SHELL ( 'NONE', ( #8, #169, #81, #108 ) ) ;
#278 = DIRECTION ( 'NONE',  ( 3.491481338843133355E-15, -1.224646799147352961E-16, 1.000000000000000000 ) ) ;
#279 = CIRCLE ( 'NONE', #66, 0.3499999999999997002 ) ;
#280 = COORDINATED_UNIVERSAL_TIME_OFFSET ( 1, 0, .AHEAD. ) ;
#281 = DESIGN_CONTEXT ( 'detailed design', #115, 'design' ) ;
#282 = CARTESIAN_POINT ( 'NONE',  ( 5.131413161946100168E-14, 1.499999999999995337, 14.69695141961245888 ) ) ;
#283 = PERSON_AND_ORGANIZATION ( #88, #222 ) ;
#284 = ORIENTED_EDGE ( 'NONE', *, *, #291, .F. ) ;
#285 = PRODUCT_RELATED_PRODUCT_CATEGORY ( 'detail', '', ( #86 ) ) ;
#286 = APPLICATION_PROTOCOL_DEFINITION ( 'international standard', 'config_control_design', 1994, #179 ) ;
#287 = CLOSED_SHELL ( 'NONE', ( #4, #241, #245, #101, #85, #183, #158, #163 ) ) ;
#288 = CC_DESIGN_APPROVAL ( #267, ( #126 ) ) ;
#289 = PERSON_AND_ORGANIZATION ( #88, #222 ) ;
#290 = EDGE_LOOP ( 'NONE', ( #167 ) ) ;
#291 = EDGE_CURVE ( 'NONE', #61, #61, #242, .T. ) ;
#292 = FACE_OUTER_BOUND ( 'NONE', #72, .T. ) ;
#293 = AXIS2_PLACEMENT_3D ( 'NONE', #31, #125, #219 ) ;
#294 = CC_DESIGN_PERSON_AND_ORGANIZATION_ASSIGNMENT ( #142, #29, ( #95 ) ) ;
#295 = AXIS2_PLACEMENT_3D ( 'NONE', #244, #71, #23 ) ;
#296 = CARTESIAN_POINT ( 'NONE',  ( 0.0000000000000000000, 0.0000000000000000000, 0.0000000000000000000 ) ) ;
#297 = DIRECTION ( 'NONE',  ( -3.491481338843133355E-15, 1.224646799147352961E-16, -1.000000000000000000 ) ) ;
#298 = FACE_BOUND ( 'NONE', #261, .T. ) ;
#299 = CARTESIAN_POINT ( 'NONE',  ( 2.914442945444143071E-14, 0.3803844939755799404, 8.347296355333847728 ) ) ;
#300 = APPROVAL_DATE_TIME ( #249, #124 ) ;
#301 = CIRCLE ( 'NONE', #295, 1.499999999999996891 ) ;
#302 = DIRECTION ( 'NONE',  ( 0.0000000000000000000, 1.000000000000000000, 0.0000000000000000000 ) ) ;
#303 = DIRECTION ( 'NONE',  ( -3.491481338843133355E-15, 1.224646799147352961E-16, -1.000000000000000000 ) ) ;
ENDSEC;
END-ISO-10303-21;
