ISO-10303-21;
HEADER;
FILE_DESCRIPTION (( 'STEP AP203' ),
    '1' );
FILE_NAME ('961472.step',
    '2021-11-30T08:32:49',
    ( '' ),
    ( '' ),
    'SwSTEP 2.0',
    'SolidWorks 2019',
    '' );
FILE_SCHEMA (( 'CONFIG_CONTROL_DESIGN' ));
ENDSEC;

DATA;
#1 = APPROVAL_ROLE ( '' ) ;
#2 = EDGE_CURVE ( 'NONE', #209, #209, #293, .T. ) ;
#3 = APPROVAL_DATE_TIME ( #254, #299 ) ;
#4 = CARTESIAN_POINT ( 'NONE',  ( 5.358479882634336420E-14, -1.879501735712543696E-15, 15.34729635533384773 ) ) ;
#5 = SECURITY_CLASSIFICATION ( '', '', #68 ) ;
#6 = CC_DESIGN_DATE_AND_TIME_ASSIGNMENT ( #54, #147, ( #169 ) ) ;
#7 = EDGE_LOOP ( 'NONE', ( #255 ) ) ;
#8 = DIRECTION ( 'NONE',  ( -4.275831445896958607E-31, -1.000000000000000000, -1.224646799147353207E-16 ) ) ;
#9 = ORIENTED_EDGE ( 'NONE', *, *, #127, .F. ) ;
#10 = AXIS2_PLACEMENT_3D ( 'NONE', #83, #152, #182 ) ;
#11 = PLANE ( 'NONE',  #192 ) ;
#12 = CC_DESIGN_PERSON_AND_ORGANIZATION_ASSIGNMENT ( #215, #150, ( #301 ) ) ;
#13 = DIRECTION ( 'NONE',  ( 3.491481338843133355E-15, -1.224646799147353207E-16, 1.000000000000000000 ) ) ;
#14 = CARTESIAN_POINT ( 'NONE',  ( 1.745740669421566678E-13, -6.123233995736766085E-15, 50.00000000000000000 ) ) ;
#15 = AXIS2_PLACEMENT_3D ( 'NONE', #158, #138, #272 ) ;
#16 = EDGE_CURVE ( 'NONE', #96, #96, #37, .T. ) ;
#17 = DIRECTION ( 'NONE',  ( 0.0000000000000000000, 1.000000000000000000, 0.0000000000000000000 ) ) ;
#18 = DIRECTION ( 'NONE',  ( 3.491481338843133355E-15, -1.224646799147353207E-16, 1.000000000000000000 ) ) ;
#19 = VERTEX_POINT ( 'NONE', #190 ) ;
#20 = DIRECTION ( 'NONE',  ( -4.275831445896958607E-31, -1.000000000000000000, -1.224646799147353207E-16 ) ) ;
#21 = AXIS2_PLACEMENT_3D ( 'NONE', #264, #13, #113 ) ;
#22 = CALENDAR_DATE ( 2021, 30, 11 ) ;
#23 = ORIENTED_EDGE ( 'NONE', *, *, #119, .T. ) ;
#24 = VERTEX_POINT ( 'NONE', #193 ) ;
#25 = COORDINATED_UNIVERSAL_TIME_OFFSET ( 1, 0, .AHEAD. ) ;
#26 = ORIENTED_EDGE ( 'NONE', *, *, #196, .T. ) ;
#27 =( LENGTH_UNIT ( ) NAMED_UNIT ( * ) SI_UNIT ( .MILLI., .METRE. ) );
#28 = EDGE_LOOP ( 'NONE', ( #261 ) ) ;
#29 = CLOSED_SHELL ( 'NONE', ( #226, #270, #263, #88 ) ) ;
#30 = APPROVAL_STATUS ( 'not_yet_approved' ) ;
#31 = APPROVAL_STATUS ( 'not_yet_approved' ) ;
#32 = PLANE ( 'NONE',  #277 ) ;
#33 = PERSON_AND_ORGANIZATION ( #292, #227 ) ;
#34 = ADVANCED_FACE ( 'NONE', ( #110, #109 ), #122, .F. ) ;
#35 = DIRECTION ( 'NONE',  ( 4.275831445896958607E-31, 1.000000000000000000, 1.224646799147353454E-16 ) ) ;
#36 = COORDINATED_UNIVERSAL_TIME_OFFSET ( 1, 0, .AHEAD. ) ;
#37 = CIRCLE ( 'NONE', #202, 0.6491624327025947716 ) ;
#38 = CARTESIAN_POINT ( 'NONE',  ( 2.444036937190193349E-14, 5.950296937710906840E-33, 7.000000000000000000 ) ) ;
#39 = DIRECTION ( 'NONE',  ( -3.491481338843133355E-15, 1.224646799147353207E-16, -1.000000000000000000 ) ) ;
#40 = DIRECTION ( 'NONE',  ( 0.0000000000000000000, 1.000000000000000000, 0.0000000000000000000 ) ) ;
#41 = APPROVAL ( #210, 'UNSPECIFIED' ) ;
#42 = AXIS2_PLACEMENT_3D ( 'NONE', #14, #269, #225 ) ;
#43 = FACE_OUTER_BOUND ( 'NONE', #212, .T. ) ;
#44 = CARTESIAN_POINT ( 'NONE',  ( 6.902210161358733318E-14, -2.420969428394839316E-15, 19.76871560094235036 ) ) ;
#45 = DIRECTION ( 'NONE',  ( -3.491481338843133355E-15, 1.224646799147353207E-16, -1.000000000000000000 ) ) ;
#46 = CARTESIAN_POINT ( 'NONE',  ( 0.0000000000000000000, 0.0000000000000000000, 0.0000000000000000000 ) ) ;
#47 = SHAPE_DEFINITION_REPRESENTATION ( #121, #115 ) ;
#48 = EDGE_LOOP ( 'NONE', ( #232 ) ) ;
#49 = VERTEX_POINT ( 'NONE', #144 ) ;
#50 = PERSON_AND_ORGANIZATION_ROLE ( 'classification_officer' ) ;
#51 = ORIENTED_EDGE ( 'NONE', *, *, #16, .F. ) ;
#52 = CARTESIAN_POINT ( 'NONE',  ( 8.728703347107833388E-16, 0.7934999999999990949, 0.2500000000000000000 ) ) ;
#53 = EDGE_CURVE ( 'NONE', #168, #168, #206, .T. ) ;
#54 = DATE_AND_TIME ( #288, #231 ) ;
#55 = AXIS2_PLACEMENT_3D ( 'NONE', #186, #241, #89 ) ;
#56 = PERSON_AND_ORGANIZATION_ROLE ( 'creator' ) ;
#57 = ORIENTED_EDGE ( 'NONE', *, *, #69, .T. ) ;
#58 = CARTESIAN_POINT ( 'NONE',  ( -4.668444969627884075E-31, 1.637470069063776201E-32, -1.337095781578694027E-16 ) ) ;
#59 = UNCERTAINTY_MEASURE_WITH_UNIT (LENGTH_MEASURE( 1.000000000000000082E-05 ), #27, 'distance_accuracy_value', 'NONE');
#60 = FACE_OUTER_BOUND ( 'NONE', #120, .T. ) ;
#61 = AXIS2_PLACEMENT_3D ( 'NONE', #130, #45, #166 ) ;
#62 = ORIENTED_EDGE ( 'NONE', *, *, #16, .T. ) ;
#63 = DIRECTION ( 'NONE',  ( 0.0000000000000000000, 1.000000000000000000, 0.0000000000000000000 ) ) ;
#64 = DIRECTION ( 'NONE',  ( -3.491481338843133355E-15, 1.224646799147353207E-16, -1.000000000000000000 ) ) ;
#65 = ADVANCED_FACE ( 'NONE', ( #60 ), #32, .F. ) ;
#66 = CYLINDRICAL_SURFACE ( 'NONE', #235, 0.6900000000000000577 ) ;
#67 = DIRECTION ( 'NONE',  ( 4.275831445896958607E-31, 1.000000000000000000, 1.224646799147353207E-16 ) ) ;
#68 = SECURITY_CLASSIFICATION_LEVEL ( 'unclassified' ) ;
#69 = EDGE_CURVE ( 'NONE', #300, #300, #154, .T. ) ;
#70 = PERSON_AND_ORGANIZATION_ROLE ( 'design_supplier' ) ;
#71 = AXIS2_PLACEMENT_3D ( 'NONE', #203, #82, #291 ) ;
#72 = CARTESIAN_POINT ( 'NONE',  ( 1.745740669421566678E-13, 1.199999999999995515, 50.00000000000000000 ) ) ;
#73 = APPROVAL_ROLE ( '' ) ;
#74 = CALENDAR_DATE ( 2021, 30, 11 ) ;
#75 = EDGE_LOOP ( 'NONE', ( #180 ) ) ;
#76 = MECHANICAL_CONTEXT ( 'NONE', #93, 'mechanical' ) ;
#77 = CC_DESIGN_PERSON_AND_ORGANIZATION_ASSIGNMENT ( #198, #56, ( #179 ) ) ;
#78 = CONICAL_SURFACE ( 'NONE', #42, 1.200000000000001732, 0.7853981633974453924 ) ;
#79 = DIRECTION ( 'NONE',  ( -3.491481338843133355E-15, 1.224646799147353207E-16, -1.000000000000000000 ) ) ;
#80 = DIRECTION ( 'NONE',  ( -3.491481338843133355E-15, 1.224646799147353207E-16, -1.000000000000000000 ) ) ;
#81 = APPROVAL_ROLE ( '' ) ;
#82 = DIRECTION ( 'NONE',  ( -3.491481338843133355E-15, 1.224646799147353207E-16, -1.000000000000000000 ) ) ;
#83 = CARTESIAN_POINT ( 'NONE',  ( 5.237222008264700033E-14, -1.734723475976807094E-15, 15.00000000000000000 ) ) ;
#84 = CC_DESIGN_APPROVAL ( #98, ( #179 ) ) ;
#85 = CC_DESIGN_DATE_AND_TIME_ASSIGNMENT ( #117, #248, ( #5 ) ) ;
#86 = PLANE ( 'NONE',  #271 ) ;
#87 = FACE_OUTER_BOUND ( 'NONE', #302, .T. ) ;
#88 = ADVANCED_FACE ( 'NONE', ( #204 ), #86, .T. ) ;
#89 = DIRECTION ( 'NONE',  ( 4.854265770352206927E-31, 1.000000000000000000, 1.366354344657222052E-16 ) ) ;
#90 = CLOSED_SHELL ( 'NONE', ( #108, #287, #176, #34, #242, #153, #189, #65 ) ) ;
#91 = AXIS2_PLACEMENT_3D ( 'NONE', #46, #116, #243 ) ;
#92 = FACE_BOUND ( 'NONE', #214, .T. ) ;
#93 = APPLICATION_CONTEXT ( 'configuration controlled 3d designs of mechanical parts and assemblies' ) ;
#94 = FACE_BOUND ( 'NONE', #149, .T. ) ;
#95 = APPROVAL_PERSON_ORGANIZATION ( #230, #98, #1 ) ;
#96 = VERTEX_POINT ( 'NONE', #274 ) ;
#97 = VERTEX_POINT ( 'NONE', #72 ) ;
#98 = APPROVAL ( #30, 'UNSPECIFIED' ) ;
#99 = CONICAL_SURFACE ( 'NONE', #213, 0.7934999999999999831, 0.5235987755982999259 ) ;
#100 = APPLICATION_PROTOCOL_DEFINITION ( 'international standard', 'config_control_design', 1994, #93 ) ;
#101 = PRODUCT_RELATED_PRODUCT_CATEGORY ( 'detail', '', ( #301 ) ) ;
#102 = MANIFOLD_SOLID_BREP ( 'Corps-Déplacer/Copier1[2]', #29 ) ;
#103 = MANIFOLD_SOLID_BREP ( 'Corps-Déplacer/Copier1[1]', #90 ) ;
#104 = PERSON_AND_ORGANIZATION ( #292, #227 ) ;
#105 = LOCAL_TIME ( 9, 32, 49.00000000000000000, #36 ) ;
#106 = DIRECTION ( 'NONE',  ( 0.0000000000000000000, 1.000000000000000000, 0.0000000000000000000 ) ) ;
#107 = FACE_OUTER_BOUND ( 'NONE', #133, .T. ) ;
#108 = ADVANCED_FACE ( 'NONE', ( #236 ), #11, .F. ) ;
#109 = FACE_OUTER_BOUND ( 'NONE', #239, .T. ) ;
#110 = FACE_OUTER_BOUND ( 'NONE', #181, .T. ) ;
#111 = CC_DESIGN_PERSON_AND_ORGANIZATION_ASSIGNMENT ( #104, #70, ( #179 ) ) ;
#112 = DIRECTION ( 'NONE',  ( -3.491481338843133355E-15, 1.224646799147353207E-16, -1.000000000000000000 ) ) ;
#113 = DIRECTION ( 'NONE',  ( -4.854265770352206927E-31, -1.000000000000000000, -1.366354344657222052E-16 ) ) ;
#114 = DIRECTION ( 'NONE',  ( 0.0000000000000000000, -1.000000000000000000, 0.0000000000000000000 ) ) ;
#115 = ADVANCED_BREP_SHAPE_REPRESENTATION ( '961472', ( #103, #102, #294 ), #279 ) ;
#116 = DIRECTION ( 'NONE',  ( -3.491481338843133355E-15, 1.224646799147353207E-16, -1.000000000000000000 ) ) ;
#117 = DATE_AND_TIME ( #22, #250 ) ;
#118 = AXIS2_PLACEMENT_3D ( 'NONE', #4, #79, #106 ) ;
#119 = EDGE_CURVE ( 'NONE', #19, #19, #135, .T. ) ;
#120 = EDGE_LOOP ( 'NONE', ( #200 ) ) ;
#121 = PRODUCT_DEFINITION_SHAPE ( 'NONE', 'NONE',  #169 ) ;
#122 = TOROIDAL_SURFACE ( 'NONE', #10, 2.689999999999999947, 2.000000000000000000 ) ;
#123 = AXIS2_PLACEMENT_3D ( 'NONE', #220, #39, #40 ) ;
#124 = COORDINATED_UNIVERSAL_TIME_OFFSET ( 1, 0, .AHEAD. ) ;
#125 = ORIENTED_EDGE ( 'NONE', *, *, #185, .T. ) ;
#126 = PERSON_AND_ORGANIZATION_ROLE ( 'creator' ) ;
#127 = EDGE_CURVE ( 'NONE', #24, #24, #284, .T. ) ;
#128 = DIRECTION ( 'NONE',  ( 4.275831445896958607E-31, 1.000000000000000000, 1.224646799147353207E-16 ) ) ;
#129 = CIRCLE ( 'NONE', #61, 1.499999999999996447 ) ;
#130 = CARTESIAN_POINT ( 'NONE',  ( 6.902210161358733318E-14, -2.420969428394839316E-15, 19.76871560094235036 ) ) ;
#131 = COORDINATED_UNIVERSAL_TIME_OFFSET ( 1, 0, .AHEAD. ) ;
#132 = DIRECTION ( 'NONE',  ( -4.275831445896958607E-31, -1.000000000000000000, -1.224646799147353207E-16 ) ) ;
#133 = EDGE_LOOP ( 'NONE', ( #57 ) ) ;
#134 = DIRECTION ( 'NONE',  ( -3.491481338843133355E-15, 1.224646799147353207E-16, -1.000000000000000000 ) ) ;
#135 = CIRCLE ( 'NONE', #118, 0.7203844939755813526 ) ;
#136 = FACE_BOUND ( 'NONE', #7, .T. ) ;
#137 = FACE_OUTER_BOUND ( 'NONE', #146, .T. ) ;
#138 = DIRECTION ( 'NONE',  ( -3.491481338843133355E-15, 1.224646799147353207E-16, -1.000000000000000000 ) ) ;
#139 = CC_DESIGN_PERSON_AND_ORGANIZATION_ASSIGNMENT ( #171, #50, ( #5 ) ) ;
#140 = DIRECTION ( 'NONE',  ( -3.491481338843133355E-15, 1.224646799147353207E-16, -1.000000000000000000 ) ) ;
#141 = DIRECTION ( 'NONE',  ( 0.0000000000000000000, 0.0000000000000000000, 1.000000000000000000 ) ) ;
#142 = ORIENTED_EDGE ( 'NONE', *, *, #119, .F. ) ;
#143 = CC_DESIGN_APPROVAL ( #299, ( #169 ) ) ;
#144 = CARTESIAN_POINT ( 'NONE',  ( 6.902210161358733318E-14, 1.499999999999994005, 19.76871560094235036 ) ) ;
#145 = APPROVAL_DATE_TIME ( #278, #41 ) ;
#146 = EDGE_LOOP ( 'NONE', ( #258 ) ) ;
#147 = DATE_TIME_ROLE ( 'creation_date' ) ;
#148 = AXIS2_PLACEMENT_3D ( 'NONE', #233, #262, #63 ) ;
#149 = EDGE_LOOP ( 'NONE', ( #142 ) ) ;
#150 = PERSON_AND_ORGANIZATION_ROLE ( 'design_owner' ) ;
#151 = CARTESIAN_POINT ( 'NONE',  ( 2.444036937190193349E-14, -8.572527594031473190E-16, 7.000000000000000000 ) ) ;
#152 = DIRECTION ( 'NONE',  ( -3.491481338843133355E-15, 1.224646799147353207E-16, -1.000000000000000000 ) ) ;
#153 = ADVANCED_FACE ( 'NONE', ( #157, #107 ), #199, .T. ) ;
#154 = CIRCLE ( 'NONE', #123, 1.500000000000001554 ) ;
#155 = DIRECTION ( 'NONE',  ( -3.491481338843133355E-15, 1.224646799147353207E-16, -1.000000000000000000 ) ) ;
#156 = ORIENTED_EDGE ( 'NONE', *, *, #162, .F. ) ;
#157 = FACE_OUTER_BOUND ( 'NONE', #183, .T. ) ;
#158 = CARTESIAN_POINT ( 'NONE',  ( 2.444036937190193349E-14, -8.572527594031473190E-16, 7.000000000000000000 ) ) ;
#159 = AXIS2_PLACEMENT_3D ( 'NONE', #201, #80, #35 ) ;
#160 = CARTESIAN_POINT ( 'NONE',  ( 2.444036937190193349E-14, -8.572527594031473190E-16, 7.000000000000000000 ) ) ;
#161 = CARTESIAN_POINT ( 'NONE',  ( 0.0000000000000000000, 0.0000000000000000000, 0.0000000000000000000 ) ) ;
#162 = EDGE_CURVE ( 'NONE', #49, #49, #129, .T. ) ;
#163 = FACE_OUTER_BOUND ( 'NONE', #177, .T. ) ;
#164 = LOCAL_TIME ( 9, 32, 49.00000000000000000, #303 ) ;
#165 = AXIS2_PLACEMENT_3D ( 'NONE', #247, #18, #20 ) ;
#166 = DIRECTION ( 'NONE',  ( 0.0000000000000000000, 1.000000000000000000, 0.0000000000000000000 ) ) ;
#167 = CARTESIAN_POINT ( 'NONE',  ( 0.0000000000000000000, 0.0000000000000000000, 0.0000000000000000000 ) ) ;
#168 = VERTEX_POINT ( 'NONE', #251 ) ;
#169 = PRODUCT_DEFINITION ( 'UNKNOWN', '', #179, #234 ) ;
#170 = CARTESIAN_POINT ( 'NONE',  ( 1.735266225405037467E-13, 1.499999999999995559, 49.70000000000000284 ) ) ;
#171 = PERSON_AND_ORGANIZATION ( #292, #227 ) ;
#172 = AXIS2_PLACEMENT_3D ( 'NONE', #151, #134, #217 ) ;
#173 = CC_DESIGN_SECURITY_CLASSIFICATION ( #5, ( #179 ) ) ;
#174 = ORIENTED_EDGE ( 'NONE', *, *, #127, .T. ) ;
#175 = ORIENTED_EDGE ( 'NONE', *, *, #211, .T. ) ;
#176 = ADVANCED_FACE ( 'NONE', ( #87, #267 ), #66, .T. ) ;
#177 = EDGE_LOOP ( 'NONE', ( #275 ) ) ;
#178 = DATE_AND_TIME ( #197, #265 ) ;
#179 = PRODUCT_DEFINITION_FORMATION_WITH_SPECIFIED_SOURCE ( 'ANY', '', #301, .NOT_KNOWN. ) ;
#180 = ORIENTED_EDGE ( 'NONE', *, *, #2, .F. ) ;
#181 = EDGE_LOOP ( 'NONE', ( #9 ) ) ;
#182 = DIRECTION ( 'NONE',  ( 4.275831445896958607E-31, 1.000000000000000000, 1.224646799147353207E-16 ) ) ;
#183 = EDGE_LOOP ( 'NONE', ( #156 ) ) ;
#184 = DIRECTION ( 'NONE',  ( 3.491481338843133355E-15, -1.224646799147353207E-16, 1.000000000000000000 ) ) ;
#185 = EDGE_CURVE ( 'NONE', #276, #276, #273, .T. ) ;
#186 = CARTESIAN_POINT ( 'NONE',  ( 8.728703347107829444E-16, -3.061616997868381785E-17, 0.2499999999999998890 ) ) ;
#187 = FACE_BOUND ( 'NONE', #281, .T. ) ;
#188 = CIRCLE ( 'NONE', #257, 1.200000000000001732 ) ;
#189 = ADVANCED_FACE ( 'NONE', ( #223, #92 ), #78, .T. ) ;
#190 = CARTESIAN_POINT ( 'NONE',  ( 5.358479882634336420E-14, 0.7203844939755795762, 15.34729635533384773 ) ) ;
#191 = CARTESIAN_POINT ( 'NONE',  ( 1.745740669421566678E-13, -6.123233995736766085E-15, 50.00000000000000000 ) ) ;
#192 = AXIS2_PLACEMENT_3D ( 'NONE', #38, #184, #8 ) ;
#193 = CARTESIAN_POINT ( 'NONE',  ( 5.237222008264700033E-14, 0.6899999999999983924, 15.00000000000000000 ) ) ;
#194 = CONICAL_SURFACE ( 'NONE', #21, 0.7934999999999990949, 0.5235987755982923764 ) ;
#195 = APPLICATION_PROTOCOL_DEFINITION ( 'international standard', 'config_control_design', 1994, #238 ) ;
#196 = EDGE_CURVE ( 'NONE', #97, #97, #188, .T. ) ;
#197 = CALENDAR_DATE ( 2021, 30, 11 ) ;
#198 = PERSON_AND_ORGANIZATION ( #292, #227 ) ;
#199 = CYLINDRICAL_SURFACE ( 'NONE', #159, 1.499999999999998890 ) ;
#200 = ORIENTED_EDGE ( 'NONE', *, *, #196, .F. ) ;
#201 = CARTESIAN_POINT ( 'NONE',  ( 0.0000000000000000000, 0.0000000000000000000, 0.0000000000000000000 ) ) ;
#202 = AXIS2_PLACEMENT_3D ( 'NONE', #58, #286, #128 ) ;
#203 = CARTESIAN_POINT ( 'NONE',  ( 2.506627765991136237E-14, -8.792066668447528551E-16, 7.179267258583378108 ) ) ;
#204 = FACE_OUTER_BOUND ( 'NONE', #75, .T. ) ;
#205 = DIRECTION ( 'NONE',  ( 3.491481338843133355E-15, -1.224646799147353207E-16, 1.000000000000000000 ) ) ;
#206 = CIRCLE ( 'NONE', #71, 0.6900000000000000577 ) ;
#207 = APPROVAL_PERSON_ORGANIZATION ( #280, #41, #73 ) ;
#208 = PLANE ( 'NONE',  #165 ) ;
#209 = VERTEX_POINT ( 'NONE', #297 ) ;
#210 = APPROVAL_STATUS ( 'not_yet_approved' ) ;
#211 = EDGE_CURVE ( 'NONE', #224, #224, #216, .T. ) ;
#212 = EDGE_LOOP ( 'NONE', ( #175 ) ) ;
#213 = AXIS2_PLACEMENT_3D ( 'NONE', #160, #112, #266 ) ;
#214 = EDGE_LOOP ( 'NONE', ( #26 ) ) ;
#215 = PERSON_AND_ORGANIZATION ( #292, #227 ) ;
#216 = CIRCLE ( 'NONE', #55, 0.7934999999999990949 ) ;
#217 = DIRECTION ( 'NONE',  ( 0.0000000000000000000, 1.000000000000000000, 0.0000000000000000000 ) ) ;
#218 = DIRECTION ( 'NONE',  ( 3.491481338843133355E-15, -1.224646799147353207E-16, 1.000000000000000000 ) ) ;
#219 = CARTESIAN_POINT ( 'NONE',  ( 2.444036937190193349E-14, 5.950296937710906840E-33, 7.000000000000000000 ) ) ;
#220 = CARTESIAN_POINT ( 'NONE',  ( 1.735266225405037467E-13, -6.086494591762345225E-15, 49.70000000000000284 ) ) ;
#221 = FACE_OUTER_BOUND ( 'NONE', #28, .T. ) ;
#222 = FACE_OUTER_BOUND ( 'NONE', #289, .T. ) ;
#223 = FACE_OUTER_BOUND ( 'NONE', #229, .T. ) ;
#224 = VERTEX_POINT ( 'NONE', #52 ) ;
#225 = DIRECTION ( 'NONE',  ( 0.0000000000000000000, 1.000000000000000000, 0.0000000000000000000 ) ) ;
#226 = ADVANCED_FACE ( 'NONE', ( #222 ), #208, .F. ) ;
#227 = ORGANIZATION ( 'UNSPECIFIED', 'UNSPECIFIED', '' ) ;
#228 = CARTESIAN_POINT ( 'NONE',  ( 2.444036937190193349E-14, 0.7934999999999990949, 7.000000000000000000 ) ) ;
#229 = EDGE_LOOP ( 'NONE', ( #260 ) ) ;
#230 = PERSON_AND_ORGANIZATION ( #292, #227 ) ;
#231 = LOCAL_TIME ( 9, 32, 49.00000000000000000, #131 ) ;
#232 = ORIENTED_EDGE ( 'NONE', *, *, #2, .T. ) ;
#233 = CARTESIAN_POINT ( 'NONE',  ( 5.237222008264700033E-14, -1.836970198721029589E-15, 15.00000000000000000 ) ) ;
#234 = DESIGN_CONTEXT ( 'detailed design', #238, 'design' ) ;
#235 = AXIS2_PLACEMENT_3D ( 'NONE', #161, #64, #67 ) ;
#236 = FACE_OUTER_BOUND ( 'NONE', #283, .T. ) ;
#237 = DIRECTION ( 'NONE',  ( 4.275831445896958607E-31, 1.000000000000000000, 1.224646799147353207E-16 ) ) ;
#238 = APPLICATION_CONTEXT ( 'configuration controlled 3d designs of mechanical parts and assemblies' ) ;
#239 = EDGE_LOOP ( 'NONE', ( #23 ) ) ;
#240 = CONICAL_SURFACE ( 'NONE', #246, 1.499999999999996447, 0.1745329251994260644 ) ;
#241 = DIRECTION ( 'NONE',  ( -3.491481338843133355E-15, 1.224646799147353207E-16, -1.000000000000000000 ) ) ;
#242 = ADVANCED_FACE ( 'NONE', ( #94, #163 ), #240, .T. ) ;
#243 = DIRECTION ( 'NONE',  ( 4.275831445896958607E-31, 1.000000000000000000, 1.224646799147353207E-16 ) ) ;
#244 =( NAMED_UNIT ( * ) SI_UNIT ( $, .STERADIAN. ) SOLID_ANGLE_UNIT ( ) );
#245 = CYLINDRICAL_SURFACE ( 'NONE', #91, 0.7934999999999995390 ) ;
#246 = AXIS2_PLACEMENT_3D ( 'NONE', #44, #205, #114 ) ;
#247 = CARTESIAN_POINT ( 'NONE',  ( -2.334222484813942037E-31, 8.187350345318881007E-33, -6.685478907893470133E-17 ) ) ;
#248 = DATE_TIME_ROLE ( 'classification_date' ) ;
#249 = EDGE_LOOP ( 'NONE', ( #253 ) ) ;
#250 = LOCAL_TIME ( 9, 32, 49.00000000000000000, #25 ) ;
#251 = CARTESIAN_POINT ( 'NONE',  ( 2.506627765991136237E-14, 0.6899999999999991696, 7.179267258583378108 ) ) ;
#252 = CALENDAR_DATE ( 2021, 30, 11 ) ;
#253 = ORIENTED_EDGE ( 'NONE', *, *, #53, .F. ) ;
#254 = DATE_AND_TIME ( #74, #105 ) ;
#255 = ORIENTED_EDGE ( 'NONE', *, *, #53, .T. ) ;
#256 = PERSON_AND_ORGANIZATION ( #292, #227 ) ;
#257 = AXIS2_PLACEMENT_3D ( 'NONE', #191, #140, #17 ) ;
#258 = ORIENTED_EDGE ( 'NONE', *, *, #211, .F. ) ;
#259 = DIRECTION ( 'NONE',  ( 1.000000000000000000, 0.0000000000000000000, 0.0000000000000000000 ) ) ;
#260 = ORIENTED_EDGE ( 'NONE', *, *, #69, .F. ) ;
#261 = ORIENTED_EDGE ( 'NONE', *, *, #185, .F. ) ;
#262 = DIRECTION ( 'NONE',  ( -3.491481338843133355E-15, 1.224646799147353207E-16, -1.000000000000000000 ) ) ;
#263 = ADVANCED_FACE ( 'NONE', ( #137, #295 ), #245, .T. ) ;
#264 = CARTESIAN_POINT ( 'NONE',  ( 8.728703347107829444E-16, -3.061616997868381785E-17, 0.2499999999999998890 ) ) ;
#265 = LOCAL_TIME ( 9, 32, 49.00000000000000000, #124 ) ;
#266 = DIRECTION ( 'NONE',  ( 0.0000000000000000000, 1.000000000000000000, 0.0000000000000000000 ) ) ;
#267 = FACE_OUTER_BOUND ( 'NONE', #249, .T. ) ;
#268 =( NAMED_UNIT ( * ) PLANE_ANGLE_UNIT ( ) SI_UNIT ( $, .RADIAN. ) );
#269 = DIRECTION ( 'NONE',  ( -3.491481338843133355E-15, 1.224646799147353207E-16, -1.000000000000000000 ) ) ;
#270 = ADVANCED_FACE ( 'NONE', ( #187, #43 ), #194, .T. ) ;
#271 = AXIS2_PLACEMENT_3D ( 'NONE', #219, #218, #132 ) ;
#272 = DIRECTION ( 'NONE',  ( 0.0000000000000000000, 1.000000000000000000, 0.0000000000000000000 ) ) ;
#273 = CIRCLE ( 'NONE', #15, 0.7934999999999999831 ) ;
#274 = CARTESIAN_POINT ( 'NONE',  ( -1.892735826383160919E-31, 0.6491624327025947716, -5.421010862427520937E-17 ) ) ;
#275 = ORIENTED_EDGE ( 'NONE', *, *, #162, .T. ) ;
#276 = VERTEX_POINT ( 'NONE', #228 ) ;
#277 = AXIS2_PLACEMENT_3D ( 'NONE', #285, #155, #237 ) ;
#278 = DATE_AND_TIME ( #252, #164 ) ;
#279 =( GEOMETRIC_REPRESENTATION_CONTEXT ( 3 ) GLOBAL_UNCERTAINTY_ASSIGNED_CONTEXT ( ( #59 ) ) GLOBAL_UNIT_ASSIGNED_CONTEXT ( ( #27, #268, #244 ) ) REPRESENTATION_CONTEXT ( 'NONE', 'WORKASPACE' ) );
#280 = PERSON_AND_ORGANIZATION ( #292, #227 ) ;
#281 = EDGE_LOOP ( 'NONE', ( #51 ) ) ;
#282 = APPROVAL_DATE_TIME ( #178, #98 ) ;
#283 = EDGE_LOOP ( 'NONE', ( #125 ) ) ;
#284 = CIRCLE ( 'NONE', #148, 0.6900000000000001688 ) ;
#285 = CARTESIAN_POINT ( 'NONE',  ( 1.745740669421566678E-13, 8.998558695971067645E-33, 50.00000000000000000 ) ) ;
#286 = DIRECTION ( 'NONE',  ( -3.491481338843133355E-15, 1.224646799147353207E-16, -1.000000000000000000 ) ) ;
#287 = ADVANCED_FACE ( 'NONE', ( #136, #221 ), #99, .T. ) ;
#288 = CALENDAR_DATE ( 2021, 30, 11 ) ;
#289 = EDGE_LOOP ( 'NONE', ( #62 ) ) ;
#290 = CC_DESIGN_APPROVAL ( #41, ( #5 ) ) ;
#291 = DIRECTION ( 'NONE',  ( 0.0000000000000000000, 1.000000000000000000, 0.0000000000000000000 ) ) ;
#292 = PERSON ( 'UNSPECIFIED', 'UNSPECIFIED', 'UNSPECIFIED', ('UNSPECIFIED'), ('UNSPECIFIED'), ('UNSPECIFIED') ) ;
#293 = CIRCLE ( 'NONE', #172, 0.7934999999999999831 ) ;
#294 = AXIS2_PLACEMENT_3D ( 'NONE', #167, #141, #259 ) ;
#295 = FACE_OUTER_BOUND ( 'NONE', #48, .T. ) ;
#296 = CC_DESIGN_PERSON_AND_ORGANIZATION_ASSIGNMENT ( #256, #126, ( #169 ) ) ;
#297 = CARTESIAN_POINT ( 'NONE',  ( 2.444036937190193349E-14, 0.7934999999999990949, 7.000000000000000000 ) ) ;
#298 = APPROVAL_PERSON_ORGANIZATION ( #33, #299, #81 ) ;
#299 = APPROVAL ( #31, 'UNSPECIFIED' ) ;
#300 = VERTEX_POINT ( 'NONE', #170 ) ;
#301 = PRODUCT ( '961472', '961472', '', ( #76 ) ) ;
#302 = EDGE_LOOP ( 'NONE', ( #174 ) ) ;
#303 = COORDINATED_UNIVERSAL_TIME_OFFSET ( 1, 0, .AHEAD. ) ;
ENDSEC;
END-ISO-10303-21;
