ISO-10303-21;
HEADER;
FILE_DESCRIPTION (( 'STEP AP203' ),
    '1' );
FILE_NAME ('961458.step',
    '2021-11-30T08:32:49',
    ( '' ),
    ( '' ),
    'SwSTEP 2.0',
    'SolidWorks 2019',
    '' );
FILE_SCHEMA (( 'CONFIG_CONTROL_DESIGN' ));
ENDSEC;

DATA;
#1 = ORIENTED_EDGE ( 'NONE', *, *, #7, .T. ) ;
#2 = EDGE_CURVE ( 'NONE', #138, #138, #231, .T. ) ;
#3 = ORIENTED_EDGE ( 'NONE', *, *, #159, .F. ) ;
#4 = DIRECTION ( 'NONE',  ( 3.491481338843133355E-15, -1.224646799147353207E-16, 1.000000000000000000 ) ) ;
#5 = FACE_OUTER_BOUND ( 'NONE', #97, .T. ) ;
#6 = AXIS2_PLACEMENT_3D ( 'NONE', #87, #58, #109 ) ;
#7 = EDGE_CURVE ( 'NONE', #294, #294, #255, .T. ) ;
#8 = DIRECTION ( 'NONE',  ( -3.491481338843133355E-15, 1.224646799147353207E-16, -1.000000000000000000 ) ) ;
#9 = APPROVAL ( #236, 'UNSPECIFIED' ) ;
#10 = DIRECTION ( 'NONE',  ( 0.0000000000000000000, 1.000000000000000000, 0.0000000000000000000 ) ) ;
#11 = CARTESIAN_POINT ( 'NONE',  ( 8.728703347107829444E-16, -3.061616997868381785E-17, 0.2499999999999998890 ) ) ;
#12 = DIRECTION ( 'NONE',  ( -3.491481338843133355E-15, 1.224646799147353207E-16, -1.000000000000000000 ) ) ;
#13 = FACE_BOUND ( 'NONE', #233, .T. ) ;
#14 = FACE_OUTER_BOUND ( 'NONE', #23, .T. ) ;
#15 = CARTESIAN_POINT ( 'NONE',  ( 7.412395270042457333E-14, 1.499999999999994005, 21.22994382807865321 ) ) ;
#16 = APPROVAL ( #208, 'UNSPECIFIED' ) ;
#17 = CIRCLE ( 'NONE', #48, 1.200000000000001732 ) ;
#18 = APPLICATION_PROTOCOL_DEFINITION ( 'international standard', 'config_control_design', 1994, #54 ) ;
#19 = AXIS2_PLACEMENT_3D ( 'NONE', #83, #227, #10 ) ;
#20 = EDGE_CURVE ( 'NONE', #141, #141, #31, .T. ) ;
#21 = ORIENTED_EDGE ( 'NONE', *, *, #20, .T. ) ;
#22 = EDGE_LOOP ( 'NONE', ( #75 ) ) ;
#23 = EDGE_LOOP ( 'NONE', ( #3 ) ) ;
#24 = APPROVAL ( #228, 'UNSPECIFIED' ) ;
#25 = DIRECTION ( 'NONE',  ( -3.491481338843133355E-15, 1.224646799147353207E-16, -1.000000000000000000 ) ) ;
#26 = LOCAL_TIME ( 9, 32, 49.00000000000000000, #167 ) ;
#27 = DIRECTION ( 'NONE',  ( -3.491481338843133355E-15, 1.224646799147353207E-16, -1.000000000000000000 ) ) ;
#28 = DIRECTION ( 'NONE',  ( 4.275831445896957731E-31, 1.000000000000000000, 1.224646799147353207E-16 ) ) ;
#29 = CALENDAR_DATE ( 2021, 30, 11 ) ;
#30 = DIRECTION ( 'NONE',  ( 4.275831445896958607E-31, 1.000000000000000000, 1.224646799147353207E-16 ) ) ;
#31 = CIRCLE ( 'NONE', #120, 0.8884999999999989573 ) ;
#32 = FACE_OUTER_BOUND ( 'NONE', #125, .T. ) ;
#33 = DIRECTION ( 'NONE',  ( 0.0000000000000000000, -1.000000000000000000, 0.0000000000000000000 ) ) ;
#34 = DIRECTION ( 'NONE',  ( -3.491481338843133355E-15, 1.224646799147353207E-16, -1.000000000000000000 ) ) ;
#35 = TOROIDAL_SURFACE ( 'NONE', #164, 2.785000000000000142, 2.000000000000000444 ) ;
#36 = DIRECTION ( 'NONE',  ( 4.275831445896957731E-31, 1.000000000000000000, 1.224646799147352961E-16 ) ) ;
#37 = ADVANCED_FACE ( 'NONE', ( #178, #290 ), #35, .F. ) ;
#38 = DIRECTION ( 'NONE',  ( 1.000000000000000000, 0.0000000000000000000, 0.0000000000000000000 ) ) ;
#39 = CALENDAR_DATE ( 2021, 30, 11 ) ;
#40 = LOCAL_TIME ( 9, 32, 49.00000000000000000, #263 ) ;
#41 = EDGE_LOOP ( 'NONE', ( #132 ) ) ;
#42 = DATE_AND_TIME ( #252, #26 ) ;
#43 = AXIS2_PLACEMENT_3D ( 'NONE', #248, #34, #36 ) ;
#44 = ORIENTED_EDGE ( 'NONE', *, *, #123, .F. ) ;
#45 = DIRECTION ( 'NONE',  ( 0.0000000000000000000, 1.000000000000000000, 0.0000000000000000000 ) ) ;
#46 = DIRECTION ( 'NONE',  ( 4.275831445896958607E-31, 1.000000000000000000, 1.224646799147353207E-16 ) ) ;
#47 = DIRECTION ( 'NONE',  ( -3.491481338843133355E-15, 1.224646799147353207E-16, -1.000000000000000000 ) ) ;
#48 = AXIS2_PLACEMENT_3D ( 'NONE', #174, #104, #198 ) ;
#49 = CYLINDRICAL_SURFACE ( 'NONE', #107, 0.8884999999999994014 ) ;
#50 = DIRECTION ( 'NONE',  ( -3.491481338843133355E-15, 1.224646799147353207E-16, -1.000000000000000000 ) ) ;
#51 = PERSON_AND_ORGANIZATION_ROLE ( 'creator' ) ;
#52 = FACE_OUTER_BOUND ( 'NONE', #117, .T. ) ;
#53 = CONICAL_SURFACE ( 'NONE', #57, 1.200000000000001732, 0.7853981633974453924 ) ;
#54 = APPLICATION_CONTEXT ( 'configuration controlled 3d designs of mechanical parts and assemblies' ) ;
#55 = ADVANCED_FACE ( 'NONE', ( #5, #151 ), #156, .T. ) ;
#56 = DIRECTION ( 'NONE',  ( 0.0000000000000000000, 1.000000000000000000, 0.0000000000000000000 ) ) ;
#57 = AXIS2_PLACEMENT_3D ( 'NONE', #163, #12, #181 ) ;
#58 = DIRECTION ( 'NONE',  ( -3.491481338843133355E-15, 1.224646799147353207E-16, -1.000000000000000000 ) ) ;
#59 = VERTEX_POINT ( 'NONE', #210 ) ;
#60 = EDGE_CURVE ( 'NONE', #234, #234, #268, .T. ) ;
#61 = APPROVAL_ROLE ( '' ) ;
#62 = ORIENTED_EDGE ( 'NONE', *, *, #116, .T. ) ;
#63 = PERSON_AND_ORGANIZATION_ROLE ( 'creator' ) ;
#64 = CLOSED_SHELL ( 'NONE', ( #82, #204, #258, #37, #298, #55, #179, #100 ) ) ;
#65 = APPROVAL_PERSON_ORGANIZATION ( #276, #9, #61 ) ;
#66 = ORIENTED_EDGE ( 'NONE', *, *, #60, .T. ) ;
#67 = VERTEX_POINT ( 'NONE', #15 ) ;
#68 = MANIFOLD_SOLID_BREP ( 'Corps-Déplacer/Copier1[1]', #64 ) ;
#69 = COORDINATED_UNIVERSAL_TIME_OFFSET ( 1, 0, .AHEAD. ) ;
#70 = EDGE_LOOP ( 'NONE', ( #239 ) ) ;
#71 = PERSON_AND_ORGANIZATION ( #241, #168 ) ;
#72 = CALENDAR_DATE ( 2021, 30, 11 ) ;
#73 = CC_DESIGN_PERSON_AND_ORGANIZATION_ASSIGNMENT ( #207, #63, ( #136 ) ) ;
#74 = AXIS2_PLACEMENT_3D ( 'NONE', #11, #182, #274 ) ;
#75 = ORIENTED_EDGE ( 'NONE', *, *, #116, .F. ) ;
#76 = DIRECTION ( 'NONE',  ( -3.491481338843133355E-15, 1.224646799147353207E-16, -1.000000000000000000 ) ) ;
#77 = DIRECTION ( 'NONE',  ( 0.0000000000000000000, 1.000000000000000000, 0.0000000000000000000 ) ) ;
#78 = FACE_OUTER_BOUND ( 'NONE', #214, .T. ) ;
#79 = CIRCLE ( 'NONE', #249, 0.7850000000000000311 ) ;
#80 = EDGE_LOOP ( 'NONE', ( #199 ) ) ;
#81 = FACE_OUTER_BOUND ( 'NONE', #150, .T. ) ;
#82 = ADVANCED_FACE ( 'NONE', ( #78 ), #158, .F. ) ;
#83 = CARTESIAN_POINT ( 'NONE',  ( 2.444036937190193349E-14, -8.572527594031473190E-16, 7.000000000000000000 ) ) ;
#84 = SECURITY_CLASSIFICATION_LEVEL ( 'unclassified' ) ;
#85 = SECURITY_CLASSIFICATION ( '', '', #84 ) ;
#86 = CARTESIAN_POINT ( 'NONE',  ( 2.444036937190193349E-14, 6.662682834475288930E-33, 7.000000000000000000 ) ) ;
#87 = CARTESIAN_POINT ( 'NONE',  ( 6.056776150402961829E-14, -2.124431095542013598E-15, 17.34729635533384240 ) ) ;
#88 = DIRECTION ( 'NONE',  ( 0.0000000000000000000, 0.0000000000000000000, 1.000000000000000000 ) ) ;
#89 = CC_DESIGN_DATE_AND_TIME_ASSIGNMENT ( #42, #147, ( #136 ) ) ;
#90 = APPROVAL_PERSON_ORGANIZATION ( #142, #24, #206 ) ;
#91 = CARTESIAN_POINT ( 'NONE',  ( 0.0000000000000000000, 0.0000000000000000000, 0.0000000000000000000 ) ) ;
#92 = ORIENTED_EDGE ( 'NONE', *, *, #291, .T. ) ;
#93 = APPROVAL_DATE_TIME ( #144, #9 ) ;
#94 = CALENDAR_DATE ( 2021, 30, 11 ) ;
#95 = CARTESIAN_POINT ( 'NONE',  ( 2.444036937190193349E-14, 0.8884999999999989573, 7.000000000000000000 ) ) ;
#96 = CC_DESIGN_APPROVAL ( #24, ( #145 ) ) ;
#97 = EDGE_LOOP ( 'NONE', ( #146 ) ) ;
#98 = ORIENTED_EDGE ( 'NONE', *, *, #192, .T. ) ;
#99 = PRODUCT_RELATED_PRODUCT_CATEGORY ( 'detail', '', ( #211 ) ) ;
#100 = ADVANCED_FACE ( 'NONE', ( #262 ), #286, .F. ) ;
#101 = CIRCLE ( 'NONE', #289, 0.8884999999999998455 ) ;
#102 = LOCAL_TIME ( 9, 32, 49.00000000000000000, #69 ) ;
#103 = DIRECTION ( 'NONE',  ( 4.275831445896958607E-31, 1.000000000000000000, 1.224646799147353454E-16 ) ) ;
#104 = DIRECTION ( 'NONE',  ( -3.491481338843133355E-15, 1.224646799147353207E-16, -1.000000000000000000 ) ) ;
#105 = ADVANCED_FACE ( 'NONE', ( #260, #240 ), #49, .T. ) ;
#106 = CARTESIAN_POINT ( 'NONE',  ( 1.735266225405037467E-13, -6.086494591762345225E-15, 49.70000000000000284 ) ) ;
#107 = AXIS2_PLACEMENT_3D ( 'NONE', #222, #25, #128 ) ;
#108 = CC_DESIGN_APPROVAL ( #16, ( #85 ) ) ;
#109 = DIRECTION ( 'NONE',  ( 0.0000000000000000000, 1.000000000000000000, 0.0000000000000000000 ) ) ;
#110 = CARTESIAN_POINT ( 'NONE',  ( 1.735266225405037467E-13, 1.499999999999995559, 49.70000000000000284 ) ) ;
#111 = DIRECTION ( 'NONE',  ( -4.275831445896958607E-31, -1.000000000000000000, -1.224646799147353207E-16 ) ) ;
#112 = CC_DESIGN_PERSON_AND_ORGANIZATION_ASSIGNMENT ( #265, #51, ( #145 ) ) ;
#113 = DIRECTION ( 'NONE',  ( 3.491481338843133355E-15, -1.224646799147353207E-16, 1.000000000000000000 ) ) ;
#114 =( LENGTH_UNIT ( ) NAMED_UNIT ( * ) SI_UNIT ( .MILLI., .METRE. ) );
#115 = CONICAL_SURFACE ( 'NONE', #218, 1.499999999999996669, 0.1745329251994259256 ) ;
#116 = EDGE_CURVE ( 'NONE', #59, #59, #79, .T. ) ;
#117 = EDGE_LOOP ( 'NONE', ( #62 ) ) ;
#118 = CARTESIAN_POINT ( 'NONE',  ( 8.728703347107833388E-16, 0.8884999999999989573, 0.2500000000000000000 ) ) ;
#119 = VERTEX_POINT ( 'NONE', #303 ) ;
#120 = AXIS2_PLACEMENT_3D ( 'NONE', #217, #172, #200 ) ;
#121 = AXIS2_PLACEMENT_3D ( 'NONE', #129, #50, #103 ) ;
#122 = PERSON_AND_ORGANIZATION_ROLE ( 'classification_officer' ) ;
#123 = EDGE_CURVE ( 'NONE', #184, #184, #17, .T. ) ;
#124 = EDGE_CURVE ( 'NONE', #148, #148, #101, .T. ) ;
#125 = EDGE_LOOP ( 'NONE', ( #92 ) ) ;
#126 = AXIS2_PLACEMENT_3D ( 'NONE', #106, #8, #45 ) ;
#127 = CONICAL_SURFACE ( 'NONE', #273, 0.8884999999999998455, 0.5235987755982977054 ) ;
#128 = DIRECTION ( 'NONE',  ( 4.275831445896958607E-31, 1.000000000000000000, 1.224646799147353207E-16 ) ) ;
#129 = CARTESIAN_POINT ( 'NONE',  ( 0.0000000000000000000, 0.0000000000000000000, 0.0000000000000000000 ) ) ;
#130 = EDGE_LOOP ( 'NONE', ( #277 ) ) ;
#131 = DATE_AND_TIME ( #29, #40 ) ;
#132 = ORIENTED_EDGE ( 'NONE', *, *, #2, .F. ) ;
#133 = CONICAL_SURFACE ( 'NONE', #74, 0.8884999999999989573, 0.5235987755982925984 ) ;
#134 = PERSON_AND_ORGANIZATION ( #241, #168 ) ;
#135 = CC_DESIGN_SECURITY_CLASSIFICATION ( #85, ( #145 ) ) ;
#136 = PRODUCT_DEFINITION ( 'UNKNOWN', '', #145, #295 ) ;
#137 = CARTESIAN_POINT ( 'NONE',  ( 7.412395270042457333E-14, -2.599918275513463022E-15, 21.22994382807865321 ) ) ;
#138 = VERTEX_POINT ( 'NONE', #110 ) ;
#139 = FACE_OUTER_BOUND ( 'NONE', #41, .T. ) ;
#140 = ADVANCED_FACE ( 'NONE', ( #177 ), #157, .T. ) ;
#141 = VERTEX_POINT ( 'NONE', #118 ) ;
#142 = PERSON_AND_ORGANIZATION ( #241, #168 ) ;
#143 = MECHANICAL_CONTEXT ( 'NONE', #169, 'mechanical' ) ;
#144 = DATE_AND_TIME ( #39, #242 ) ;
#145 = PRODUCT_DEFINITION_FORMATION_WITH_SPECIFIED_SOURCE ( 'ANY', '', #211, .NOT_KNOWN. ) ;
#146 = ORIENTED_EDGE ( 'NONE', *, *, #291, .F. ) ;
#147 = DATE_TIME_ROLE ( 'creation_date' ) ;
#148 = VERTEX_POINT ( 'NONE', #95 ) ;
#149 = ORIENTED_EDGE ( 'NONE', *, *, #7, .F. ) ;
#150 = EDGE_LOOP ( 'NONE', ( #1 ) ) ;
#151 = FACE_OUTER_BOUND ( 'NONE', #130, .T. ) ;
#152 = DIRECTION ( 'NONE',  ( 0.0000000000000000000, 1.000000000000000000, 0.0000000000000000000 ) ) ;
#153 = CC_DESIGN_DATE_AND_TIME_ASSIGNMENT ( #297, #215, ( #85 ) ) ;
#154 = AXIS2_PLACEMENT_3D ( 'NONE', #244, #27, #28 ) ;
#155 = AXIS2_PLACEMENT_3D ( 'NONE', #86, #229, #111 ) ;
#156 = CYLINDRICAL_SURFACE ( 'NONE', #121, 1.499999999999999112 ) ;
#157 = PLANE ( 'NONE',  #155 ) ;
#158 = PLANE ( 'NONE',  #190 ) ;
#159 = EDGE_CURVE ( 'NONE', #119, #119, #205, .T. ) ;
#160 = FACE_OUTER_BOUND ( 'NONE', #70, .T. ) ;
#161 = DIRECTION ( 'NONE',  ( -3.491481338843133355E-15, 1.224646799147353207E-16, -1.000000000000000000 ) ) ;
#162 = DIRECTION ( 'NONE',  ( 0.0000000000000000000, 1.000000000000000000, 0.0000000000000000000 ) ) ;
#163 = CARTESIAN_POINT ( 'NONE',  ( 1.745740669421566678E-13, -6.123233995736766085E-15, 50.00000000000000000 ) ) ;
#164 = AXIS2_PLACEMENT_3D ( 'NONE', #259, #76, #46 ) ;
#165 = CARTESIAN_POINT ( 'NONE',  ( 2.444036937190193349E-14, -8.572527594031473190E-16, 7.000000000000000000 ) ) ;
#166 = COORDINATED_UNIVERSAL_TIME_OFFSET ( 1, 0, .AHEAD. ) ;
#167 = COORDINATED_UNIVERSAL_TIME_OFFSET ( 1, 0, .AHEAD. ) ;
#168 = ORGANIZATION ( 'UNSPECIFIED', 'UNSPECIFIED', '' ) ;
#169 = APPLICATION_CONTEXT ( 'configuration controlled 3d designs of mechanical parts and assemblies' ) ;
#170 = ORIENTED_EDGE ( 'NONE', *, *, #124, .T. ) ;
#171 = CC_DESIGN_PERSON_AND_ORGANIZATION_ASSIGNMENT ( #134, #267, ( #145 ) ) ;
#172 = DIRECTION ( 'NONE',  ( -3.491481338843133355E-15, 1.224646799147353207E-16, -1.000000000000000000 ) ) ;
#173 = DIRECTION ( 'NONE',  ( -3.491481338843133355E-15, 1.224646799147353207E-16, -1.000000000000000000 ) ) ;
#174 = CARTESIAN_POINT ( 'NONE',  ( 1.745740669421566678E-13, -6.123233995736766085E-15, 50.00000000000000000 ) ) ;
#175 = AXIS2_PLACEMENT_3D ( 'NONE', #271, #113, #246 ) ;
#176 = MANIFOLD_SOLID_BREP ( 'Corps-Déplacer/Copier1[2]', #223 ) ;
#177 = FACE_OUTER_BOUND ( 'NONE', #80, .T. ) ;
#178 = FACE_OUTER_BOUND ( 'NONE', #22, .T. ) ;
#179 = ADVANCED_FACE ( 'NONE', ( #139, #226 ), #53, .T. ) ;
#180 = ADVANCED_FACE ( 'NONE', ( #81 ), #266, .F. ) ;
#181 = DIRECTION ( 'NONE',  ( 0.0000000000000000000, 1.000000000000000000, 0.0000000000000000000 ) ) ;
#182 = DIRECTION ( 'NONE',  ( 3.491481338843133355E-15, -1.224646799147353207E-16, 1.000000000000000000 ) ) ;
#183 = CYLINDRICAL_SURFACE ( 'NONE', #43, 0.7850000000000003642 ) ;
#184 = VERTEX_POINT ( 'NONE', #299 ) ;
#185 = PERSON_AND_ORGANIZATION_ROLE ( 'design_owner' ) ;
#186 = PERSON_AND_ORGANIZATION ( #241, #168 ) ;
#187 = EDGE_LOOP ( 'NONE', ( #98 ) ) ;
#188 = VERTEX_POINT ( 'NONE', #254 ) ;
#189 =( NAMED_UNIT ( * ) PLANE_ANGLE_UNIT ( ) SI_UNIT ( $, .RADIAN. ) );
#190 = AXIS2_PLACEMENT_3D ( 'NONE', #197, #4, #243 ) ;
#191 = EDGE_LOOP ( 'NONE', ( #237 ) ) ;
#192 = EDGE_CURVE ( 'NONE', #188, #188, #202, .T. ) ;
#193 = EDGE_LOOP ( 'NONE', ( #170 ) ) ;
#194 = DATE_AND_TIME ( #94, #102 ) ;
#195 =( NAMED_UNIT ( * ) SI_UNIT ( $, .STERADIAN. ) SOLID_ANGLE_UNIT ( ) );
#196 = CARTESIAN_POINT ( 'NONE',  ( 2.506627765991136237E-14, -8.792066668447528551E-16, 7.179267258583378108 ) ) ;
#197 = CARTESIAN_POINT ( 'NONE',  ( 2.444036937190193349E-14, 6.662682834475288930E-33, 7.000000000000000000 ) ) ;
#198 = DIRECTION ( 'NONE',  ( 0.0000000000000000000, 1.000000000000000000, 0.0000000000000000000 ) ) ;
#199 = ORIENTED_EDGE ( 'NONE', *, *, #124, .F. ) ;
#200 = DIRECTION ( 'NONE',  ( 4.335239041952139770E-31, 1.000000000000000000, 1.220261308368605172E-16 ) ) ;
#201 = CARTESIAN_POINT ( 'NONE',  ( 7.412395270042457333E-14, -2.599918275513463022E-15, 21.22994382807865321 ) ) ;
#202 = CIRCLE ( 'NONE', #6, 0.8153844939755806598 ) ;
#203 = FACE_BOUND ( 'NONE', #209, .T. ) ;
#204 = ADVANCED_FACE ( 'NONE', ( #13, #14 ), #127, .T. ) ;
#205 = CIRCLE ( 'NONE', #19, 0.8884999999999998455 ) ;
#206 = APPROVAL_ROLE ( '' ) ;
#207 = PERSON_AND_ORGANIZATION ( #241, #168 ) ;
#208 = APPROVAL_STATUS ( 'not_yet_approved' ) ;
#209 = EDGE_LOOP ( 'NONE', ( #149 ) ) ;
#210 = CARTESIAN_POINT ( 'NONE',  ( 5.935518276033326704E-14, 0.7849999999999979217, 17.00000000000000000 ) ) ;
#211 = PRODUCT ( '961458', '961458', '', ( #143 ) ) ;
#212 = CARTESIAN_POINT ( 'NONE',  ( 2.506627765991136237E-14, 0.7849999999999996980, 7.179267258583378108 ) ) ;
#213 = AXIS2_PLACEMENT_3D ( 'NONE', #196, #221, #152 ) ;
#214 = EDGE_LOOP ( 'NONE', ( #253 ) ) ;
#215 = DATE_TIME_ROLE ( 'classification_date' ) ;
#216 = CC_DESIGN_PERSON_AND_ORGANIZATION_ASSIGNMENT ( #71, #122, ( #85 ) ) ;
#217 = CARTESIAN_POINT ( 'NONE',  ( 8.728703347107829444E-16, -3.061616997868381785E-17, 0.2499999999999998890 ) ) ;
#218 = AXIS2_PLACEMENT_3D ( 'NONE', #137, #247, #33 ) ;
#219 = CARTESIAN_POINT ( 'NONE',  ( 5.935518276033326704E-14, -2.081899558550500280E-15, 17.00000000000000000 ) ) ;
#220 = ADVANCED_BREP_SHAPE_REPRESENTATION ( '961458', ( #68, #176, #293 ), #284 ) ;
#221 = DIRECTION ( 'NONE',  ( -3.491481338843133355E-15, 1.224646799147353207E-16, -1.000000000000000000 ) ) ;
#222 = CARTESIAN_POINT ( 'NONE',  ( 0.0000000000000000000, 0.0000000000000000000, 0.0000000000000000000 ) ) ;
#223 = CLOSED_SHELL ( 'NONE', ( #180, #272, #105, #140 ) ) ;
#224 = EDGE_LOOP ( 'NONE', ( #21 ) ) ;
#225 = FACE_OUTER_BOUND ( 'NONE', #224, .T. ) ;
#226 = FACE_BOUND ( 'NONE', #191, .T. ) ;
#227 = DIRECTION ( 'NONE',  ( -3.491481338843133355E-15, 1.224646799147353207E-16, -1.000000000000000000 ) ) ;
#228 = APPROVAL_STATUS ( 'not_yet_approved' ) ;
#229 = DIRECTION ( 'NONE',  ( 3.491481338843133355E-15, -1.224646799147353207E-16, 1.000000000000000000 ) ) ;
#230 = CC_DESIGN_PERSON_AND_ORGANIZATION_ASSIGNMENT ( #285, #185, ( #211 ) ) ;
#231 = CIRCLE ( 'NONE', #126, 1.500000000000001554 ) ;
#232 = AXIS2_PLACEMENT_3D ( 'NONE', #201, #250, #162 ) ;
#233 = EDGE_LOOP ( 'NONE', ( #66 ) ) ;
#234 = VERTEX_POINT ( 'NONE', #212 ) ;
#235 = COORDINATED_UNIVERSAL_TIME_OFFSET ( 1, 0, .AHEAD. ) ;
#236 = APPROVAL_STATUS ( 'not_yet_approved' ) ;
#237 = ORIENTED_EDGE ( 'NONE', *, *, #123, .T. ) ;
#238 = EDGE_LOOP ( 'NONE', ( #44 ) ) ;
#239 = ORIENTED_EDGE ( 'NONE', *, *, #60, .F. ) ;
#240 = FACE_OUTER_BOUND ( 'NONE', #193, .T. ) ;
#241 = PERSON ( 'UNSPECIFIED', 'UNSPECIFIED', 'UNSPECIFIED', ('UNSPECIFIED'), ('UNSPECIFIED'), ('UNSPECIFIED') ) ;
#242 = LOCAL_TIME ( 9, 32, 49.00000000000000000, #166 ) ;
#243 = DIRECTION ( 'NONE',  ( -4.275831445896958607E-31, -1.000000000000000000, -1.224646799147353207E-16 ) ) ;
#244 = CARTESIAN_POINT ( 'NONE',  ( -5.074648956988094521E-31, 1.779947248416652346E-32, -1.453437227497692447E-16 ) ) ;
#245 = CARTESIAN_POINT ( 'NONE',  ( 1.745740669421566678E-13, 8.998558695971067645E-33, 50.00000000000000000 ) ) ;
#246 = DIRECTION ( 'NONE',  ( -4.275831445896958607E-31, -1.000000000000000000, -1.224646799147353207E-16 ) ) ;
#247 = DIRECTION ( 'NONE',  ( 3.491481338843133355E-15, -1.224646799147353207E-16, 1.000000000000000000 ) ) ;
#248 = CARTESIAN_POINT ( 'NONE',  ( 0.0000000000000000000, 0.0000000000000000000, 0.0000000000000000000 ) ) ;
#249 = AXIS2_PLACEMENT_3D ( 'NONE', #219, #287, #77 ) ;
#250 = DIRECTION ( 'NONE',  ( -3.491481338843133355E-15, 1.224646799147353207E-16, -1.000000000000000000 ) ) ;
#251 = APPROVAL_DATE_TIME ( #194, #16 ) ;
#252 = CALENDAR_DATE ( 2021, 30, 11 ) ;
#253 = ORIENTED_EDGE ( 'NONE', *, *, #159, .T. ) ;
#254 = CARTESIAN_POINT ( 'NONE',  ( 6.056776150402961829E-14, 0.8153844939755784393, 17.34729635533384240 ) ) ;
#255 = CIRCLE ( 'NONE', #154, 0.7441624327025946339 ) ;
#256 = CIRCLE ( 'NONE', #232, 1.499999999999996669 ) ;
#257 = APPROVAL_PERSON_ORGANIZATION ( #186, #16, #300 ) ;
#258 = ADVANCED_FACE ( 'NONE', ( #52, #160 ), #183, .T. ) ;
#259 = CARTESIAN_POINT ( 'NONE',  ( 5.935518276033326704E-14, -2.168404344971008868E-15, 17.00000000000000000 ) ) ;
#260 = FACE_OUTER_BOUND ( 'NONE', #282, .T. ) ;
#261 = CARTESIAN_POINT ( 'NONE',  ( 2.444036937190193349E-14, -8.572527594031473190E-16, 7.000000000000000000 ) ) ;
#262 = FACE_OUTER_BOUND ( 'NONE', #238, .T. ) ;
#263 = COORDINATED_UNIVERSAL_TIME_OFFSET ( 1, 0, .AHEAD. ) ;
#264 = ORIENTED_EDGE ( 'NONE', *, *, #192, .F. ) ;
#265 = PERSON_AND_ORGANIZATION ( #241, #168 ) ;
#266 = PLANE ( 'NONE',  #175 ) ;
#267 = PERSON_AND_ORGANIZATION_ROLE ( 'design_supplier' ) ;
#268 = CIRCLE ( 'NONE', #213, 0.7850000000000005862 ) ;
#269 = FACE_BOUND ( 'NONE', #301, .T. ) ;
#270 = CARTESIAN_POINT ( 'NONE',  ( -1.892735826383161356E-31, 0.7441624327025946339, -5.421010862427522170E-17 ) ) ;
#271 = CARTESIAN_POINT ( 'NONE',  ( -2.537324478494047260E-31, 8.899736242083261728E-33, -7.267186137488462235E-17 ) ) ;
#272 = ADVANCED_FACE ( 'NONE', ( #203, #225 ), #133, .T. ) ;
#273 = AXIS2_PLACEMENT_3D ( 'NONE', #165, #161, #56 ) ;
#274 = DIRECTION ( 'NONE',  ( -4.335239041952139770E-31, -1.000000000000000000, -1.220261308368605172E-16 ) ) ;
#275 = UNCERTAINTY_MEASURE_WITH_UNIT (LENGTH_MEASURE( 1.000000000000000082E-05 ), #114, 'distance_accuracy_value', 'NONE');
#276 = PERSON_AND_ORGANIZATION ( #241, #168 ) ;
#277 = ORIENTED_EDGE ( 'NONE', *, *, #2, .T. ) ;
#278 = CC_DESIGN_APPROVAL ( #9, ( #136 ) ) ;
#279 = APPLICATION_PROTOCOL_DEFINITION ( 'international standard', 'config_control_design', 1994, #169 ) ;
#280 = ORIENTED_EDGE ( 'NONE', *, *, #20, .F. ) ;
#281 = PRODUCT_DEFINITION_SHAPE ( 'NONE', 'NONE',  #136 ) ;
#282 = EDGE_LOOP ( 'NONE', ( #280 ) ) ;
#283 = SHAPE_DEFINITION_REPRESENTATION ( #281, #220 ) ;
#284 =( GEOMETRIC_REPRESENTATION_CONTEXT ( 3 ) GLOBAL_UNCERTAINTY_ASSIGNED_CONTEXT ( ( #275 ) ) GLOBAL_UNIT_ASSIGNED_CONTEXT ( ( #114, #189, #195 ) ) REPRESENTATION_CONTEXT ( 'NONE', 'WORKASPACE' ) );
#285 = PERSON_AND_ORGANIZATION ( #241, #168 ) ;
#286 = PLANE ( 'NONE',  #296 ) ;
#287 = DIRECTION ( 'NONE',  ( -3.491481338843133355E-15, 1.224646799147353207E-16, -1.000000000000000000 ) ) ;
#288 = DIRECTION ( 'NONE',  ( 0.0000000000000000000, 1.000000000000000000, 0.0000000000000000000 ) ) ;
#289 = AXIS2_PLACEMENT_3D ( 'NONE', #261, #47, #288 ) ;
#290 = FACE_OUTER_BOUND ( 'NONE', #187, .T. ) ;
#291 = EDGE_CURVE ( 'NONE', #67, #67, #256, .T. ) ;
#292 = APPROVAL_DATE_TIME ( #131, #24 ) ;
#293 = AXIS2_PLACEMENT_3D ( 'NONE', #91, #88, #38 ) ;
#294 = VERTEX_POINT ( 'NONE', #270 ) ;
#295 = DESIGN_CONTEXT ( 'detailed design', #54, 'design' ) ;
#296 = AXIS2_PLACEMENT_3D ( 'NONE', #245, #173, #30 ) ;
#297 = DATE_AND_TIME ( #72, #302 ) ;
#298 = ADVANCED_FACE ( 'NONE', ( #269, #32 ), #115, .T. ) ;
#299 = CARTESIAN_POINT ( 'NONE',  ( 1.745740669421566678E-13, 1.199999999999995515, 50.00000000000000000 ) ) ;
#300 = APPROVAL_ROLE ( '' ) ;
#301 = EDGE_LOOP ( 'NONE', ( #264 ) ) ;
#302 = LOCAL_TIME ( 9, 32, 49.00000000000000000, #235 ) ;
#303 = CARTESIAN_POINT ( 'NONE',  ( 2.444036937190193349E-14, 0.8884999999999989573, 7.000000000000000000 ) ) ;
ENDSEC;
END-ISO-10303-21;
