ISO-10303-21;
HEADER;
FILE_DESCRIPTION (( 'STEP AP203' ),
    '1' );
FILE_NAME ('961456.step',
    '2021-11-29T14:58:47',
    ( '' ),
    ( '' ),
    'SwSTEP 2.0',
    'SolidWorks 2019',
    '' );
FILE_SCHEMA (( 'CONFIG_CONTROL_DESIGN' ));
ENDSEC;

DATA;
#1 = APPLICATION_CONTEXT ( 'configuration controlled 3d designs of mechanical parts and assemblies' ) ;
#2 = APPROVAL_DATE_TIME ( #211, #150 ) ;
#3 = AXIS2_PLACEMENT_3D ( 'NONE', #198, #294, #273 ) ;
#4 = EDGE_CURVE ( 'NONE', #224, #224, #17, .T. ) ;
#5 = DIRECTION ( 'NONE',  ( -3.491481338843133355E-15, 1.224646799147352961E-16, -1.000000000000000000 ) ) ;
#6 = FACE_BOUND ( 'NONE', #46, .T. ) ;
#7 = DATE_AND_TIME ( #137, #299 ) ;
#8 = EDGE_LOOP ( 'NONE', ( #212 ) ) ;
#9 = DIRECTION ( 'NONE',  ( 5.215788610392012806E-31, 1.000000000000000000, 1.468113977637796626E-16 ) ) ;
#10 = CONICAL_SURFACE ( 'NONE', #22, 0.7384999999999942721, 0.5235987755982923764 ) ;
#11 = DIRECTION ( 'NONE',  ( 4.275831445896957731E-31, 1.000000000000000000, 1.224646799147352714E-16 ) ) ;
#12 = APPROVAL ( #206, 'UNSPECIFIED' ) ;
#13 = FACE_OUTER_BOUND ( 'NONE', #23, .T. ) ;
#14 = EDGE_LOOP ( 'NONE', ( #201 ) ) ;
#15 = CARTESIAN_POINT ( 'NONE',  ( 5.237222008264700033E-14, 0.6449999999999984635, 15.00000000000000000 ) ) ;
#16 = EDGE_CURVE ( 'NONE', #178, #178, #281, .T. ) ;
#17 = CIRCLE ( 'NONE', #274, 0.5941624327025899488 ) ;
#18 = DIRECTION ( 'NONE',  ( -4.275831445896957731E-31, -1.000000000000000000, -1.224646799147352961E-16 ) ) ;
#19 = DIRECTION ( 'NONE',  ( 4.275831445896957731E-31, 1.000000000000000000, 1.224646799147352961E-16 ) ) ;
#20 = PRODUCT_DEFINITION ( 'UNKNOWN', '', #155, #157 ) ;
#21 = CC_DESIGN_APPROVAL ( #12, ( #20 ) ) ;
#22 = AXIS2_PLACEMENT_3D ( 'NONE', #143, #31, #216 ) ;
#23 = EDGE_LOOP ( 'NONE', ( #125 ) ) ;
#24 = EDGE_CURVE ( 'NONE', #291, #291, #97, .T. ) ;
#25 = EDGE_LOOP ( 'NONE', ( #27 ) ) ;
#26 = APPROVAL_ROLE ( '' ) ;
#27 = ORIENTED_EDGE ( 'NONE', *, *, #188, .T. ) ;
#28 = DIRECTION ( 'NONE',  ( -3.491481338843133355E-15, 1.224646799147352961E-16, -1.000000000000000000 ) ) ;
#29 = DIRECTION ( 'NONE',  ( -3.491481338843133355E-15, 1.224646799147352961E-16, -1.000000000000000000 ) ) ;
#30 = COORDINATED_UNIVERSAL_TIME_OFFSET ( 1, 0, .AHEAD. ) ;
#31 = DIRECTION ( 'NONE',  ( 3.491481338843133355E-15, -1.224646799147352961E-16, 1.000000000000000000 ) ) ;
#32 = DIRECTION ( 'NONE',  ( 0.0000000000000000000, 1.000000000000000000, 0.0000000000000000000 ) ) ;
#33 = AXIS2_PLACEMENT_3D ( 'NONE', #130, #104, #296 ) ;
#34 = CC_DESIGN_DATE_AND_TIME_ASSIGNMENT ( #116, #267, ( #20 ) ) ;
#35 = DIRECTION ( 'NONE',  ( -4.275831445896957731E-31, -1.000000000000000000, -1.224646799147352961E-16 ) ) ;
#36 = EDGE_LOOP ( 'NONE', ( #186 ) ) ;
#37 = PLANE ( 'NONE',  #105 ) ;
#38 = FACE_OUTER_BOUND ( 'NONE', #78, .T. ) ;
#39 = AXIS2_PLACEMENT_3D ( 'NONE', #153, #123, #11 ) ;
#40 = AXIS2_PLACEMENT_3D ( 'NONE', #128, #250, #181 ) ;
#41 = ADVANCED_FACE ( 'NONE', ( #289, #213 ), #69, .T. ) ;
#42 = CONICAL_SURFACE ( 'NONE', #264, 1.200000000000003286, 0.7853981633974453924 ) ;
#43 = EDGE_CURVE ( 'NONE', #177, #177, #298, .T. ) ;
#44 = EDGE_LOOP ( 'NONE', ( #225 ) ) ;
#45 = SHAPE_DEFINITION_REPRESENTATION ( #126, #227 ) ;
#46 = EDGE_LOOP ( 'NONE', ( #101 ) ) ;
#47 = DIRECTION ( 'NONE',  ( -3.491481338843133355E-15, 1.224646799147352961E-16, -1.000000000000000000 ) ) ;
#48 = AXIS2_PLACEMENT_3D ( 'NONE', #145, #49, #111 ) ;
#49 = DIRECTION ( 'NONE',  ( -3.491481338843133355E-15, 1.224646799147352961E-16, -1.000000000000000000 ) ) ;
#50 = SECURITY_CLASSIFICATION_LEVEL ( 'unclassified' ) ;
#51 = FACE_OUTER_BOUND ( 'NONE', #36, .T. ) ;
#52 = CARTESIAN_POINT ( 'NONE',  ( 0.0000000000000000000, 0.0000000000000000000, 0.0000000000000000000 ) ) ;
#53 = AXIS2_PLACEMENT_3D ( 'NONE', #164, #256, #239 ) ;
#54 = EDGE_CURVE ( 'NONE', #148, #148, #235, .T. ) ;
#55 = VERTEX_POINT ( 'NONE', #15 ) ;
#56 = FACE_OUTER_BOUND ( 'NONE', #14, .T. ) ;
#57 = PLANE ( 'NONE',  #302 ) ;
#58 = LOCAL_TIME ( 15, 58, 47.00000000000000000, #154 ) ;
#59 = FACE_OUTER_BOUND ( 'NONE', #303, .T. ) ;
#60 = PERSON_AND_ORGANIZATION ( #66, #172 ) ;
#61 =( NAMED_UNIT ( * ) SI_UNIT ( $, .STERADIAN. ) SOLID_ANGLE_UNIT ( ) );
#62 = CALENDAR_DATE ( 2021, 29, 11 ) ;
#63 = LOCAL_TIME ( 15, 58, 47.00000000000000000, #263 ) ;
#64 = PERSON_AND_ORGANIZATION_ROLE ( 'creator' ) ;
#65 = CC_DESIGN_PERSON_AND_ORGANIZATION_ASSIGNMENT ( #70, #196, ( #155 ) ) ;
#66 = PERSON ( 'UNSPECIFIED', 'UNSPECIFIED', 'UNSPECIFIED', ('UNSPECIFIED'), ('UNSPECIFIED'), ('UNSPECIFIED') ) ;
#67 = ADVANCED_FACE ( 'NONE', ( #141 ), #244, .F. ) ;
#68 = CONICAL_SURFACE ( 'NONE', #214, 1.499999999999997780, 0.1745329251994260644 ) ;
#69 = CYLINDRICAL_SURFACE ( 'NONE', #248, 0.7384999999999947162 ) ;
#70 = PERSON_AND_ORGANIZATION ( #66, #172 ) ;
#71 = CARTESIAN_POINT ( 'NONE',  ( 2.500580342918579966E-14, -8.770855163673021750E-16, 7.161946750507684811 ) ) ;
#72 = DIRECTION ( 'NONE',  ( 4.275831445896957731E-31, 1.000000000000000000, 1.224646799147353207E-16 ) ) ;
#73 = EDGE_LOOP ( 'NONE', ( #86 ) ) ;
#74 = ORIENTED_EDGE ( 'NONE', *, *, #4, .T. ) ;
#75 = CARTESIAN_POINT ( 'NONE',  ( 6.991315447241061740E-14, -2.452223355468399598E-15, 20.02392328282516942 ) ) ;
#76 = CARTESIAN_POINT ( 'NONE',  ( 6.991315447241061740E-14, 1.499999999999995559, 20.02392328282516942 ) ) ;
#77 = CC_DESIGN_APPROVAL ( #215, ( #107 ) ) ;
#78 = EDGE_LOOP ( 'NONE', ( #195 ) ) ;
#79 = DIRECTION ( 'NONE',  ( -3.491481338843133355E-15, 1.224646799147352961E-16, -1.000000000000000000 ) ) ;
#80 = PLANE ( 'NONE',  #82 ) ;
#81 = CARTESIAN_POINT ( 'NONE',  ( 0.0000000000000000000, 0.0000000000000000000, 0.0000000000000000000 ) ) ;
#82 = AXIS2_PLACEMENT_3D ( 'NONE', #223, #203, #18 ) ;
#83 = LOCAL_TIME ( 15, 58, 47.00000000000000000, #110 ) ;
#84 = VERTEX_POINT ( 'NONE', #160 ) ;
#85 = CIRCLE ( 'NONE', #3, 0.6449999999999993516 ) ;
#86 = ORIENTED_EDGE ( 'NONE', *, *, #272, .T. ) ;
#87 = VERTEX_POINT ( 'NONE', #134 ) ;
#88 = DIRECTION ( 'NONE',  ( 0.0000000000000000000, 1.000000000000000000, 0.0000000000000000000 ) ) ;
#89 = AXIS2_PLACEMENT_3D ( 'NONE', #269, #124, #19 ) ;
#90 = CC_DESIGN_DATE_AND_TIME_ASSIGNMENT ( #7, #283, ( #107 ) ) ;
#91 = DIRECTION ( 'NONE',  ( 0.0000000000000000000, 1.000000000000000000, 0.0000000000000000000 ) ) ;
#92 = PERSON_AND_ORGANIZATION ( #66, #172 ) ;
#93 = DIRECTION ( 'NONE',  ( 4.275831445896957731E-31, 1.000000000000000000, 1.224646799147352961E-16 ) ) ;
#94 = EDGE_CURVE ( 'NONE', #55, #55, #277, .T. ) ;
#95 = EDGE_LOOP ( 'NONE', ( #282 ) ) ;
#96 = PERSON_AND_ORGANIZATION_ROLE ( 'design_supplier' ) ;
#97 = CIRCLE ( 'NONE', #48, 1.499999999999997780 ) ;
#98 = APPROVAL_PERSON_ORGANIZATION ( #236, #150, #120 ) ;
#99 = CARTESIAN_POINT ( 'NONE',  ( 8.728703347107829444E-16, -3.061616997868381169E-17, 0.2499999999999998890 ) ) ;
#100 = CARTESIAN_POINT ( 'NONE',  ( -1.892735826383161794E-31, 0.5941624327025899488, -5.421010862427522170E-17 ) ) ;
#101 = ORIENTED_EDGE ( 'NONE', *, *, #131, .T. ) ;
#102 = VERTEX_POINT ( 'NONE', #202 ) ;
#103 = FACE_OUTER_BOUND ( 'NONE', #112, .T. ) ;
#104 = DIRECTION ( 'NONE',  ( -3.491481338843133355E-15, 1.224646799147352961E-16, -1.000000000000000000 ) ) ;
#105 = AXIS2_PLACEMENT_3D ( 'NONE', #229, #245, #35 ) ;
#106 = APPLICATION_PROTOCOL_DEFINITION ( 'international standard', 'config_control_design', 1994, #161 ) ;
#107 = SECURITY_CLASSIFICATION ( '', '', #50 ) ;
#108 = APPROVAL_PERSON_ORGANIZATION ( #60, #12, #182 ) ;
#109 = ORIENTED_EDGE ( 'NONE', *, *, #240, .F. ) ;
#110 = COORDINATED_UNIVERSAL_TIME_OFFSET ( 1, 0, .AHEAD. ) ;
#111 = DIRECTION ( 'NONE',  ( 0.0000000000000000000, 1.000000000000000000, 0.0000000000000000000 ) ) ;
#112 = EDGE_LOOP ( 'NONE', ( #197 ) ) ;
#113 = AXIS2_PLACEMENT_3D ( 'NONE', #209, #184, #276 ) ;
#114 = ADVANCED_FACE ( 'NONE', ( #51, #262 ), #129, .T. ) ;
#115 = FACE_BOUND ( 'NONE', #259, .T. ) ;
#116 = DATE_AND_TIME ( #171, #293 ) ;
#117 = ORIENTED_EDGE ( 'NONE', *, *, #16, .F. ) ;
#118 = APPROVAL_DATE_TIME ( #140, #215 ) ;
#119 = CARTESIAN_POINT ( 'NONE',  ( 1.326762908760390423E-13, -4.653657836759941152E-15, 38.00000000000000000 ) ) ;
#120 = APPROVAL_ROLE ( '' ) ;
#121 = ADVANCED_FACE ( 'NONE', ( #115, #193 ), #10, .T. ) ;
#122 = CIRCLE ( 'NONE', #33, 1.500000000000003331 ) ;
#123 = DIRECTION ( 'NONE',  ( -3.491481338843133355E-15, 1.224646799147352961E-16, -1.000000000000000000 ) ) ;
#124 = DIRECTION ( 'NONE',  ( -3.491481338843133355E-15, 1.224646799147352961E-16, -1.000000000000000000 ) ) ;
#125 = ORIENTED_EDGE ( 'NONE', *, *, #54, .F. ) ;
#126 = PRODUCT_DEFINITION_SHAPE ( 'NONE', 'NONE',  #20 ) ;
#127 = DIRECTION ( 'NONE',  ( 4.275831445896957731E-31, 1.000000000000000000, 1.224646799147353207E-16 ) ) ;
#128 = CARTESIAN_POINT ( 'NONE',  ( 2.444036937190193349E-14, -8.572527594031471218E-16, 7.000000000000000000 ) ) ;
#129 = CONICAL_SURFACE ( 'NONE', #221, 0.6449999999999993516, 0.5235987755982949299 ) ;
#130 = CARTESIAN_POINT ( 'NONE',  ( 1.316288464743861212E-13, -4.616918432785520292E-15, 37.69999999999999574 ) ) ;
#131 = EDGE_CURVE ( 'NONE', #102, #102, #180, .T. ) ;
#132 = CLOSED_SHELL ( 'NONE', ( #233, #121, #41, #300 ) ) ;
#133 = PRODUCT ( '961456', '961456', '', ( #135 ) ) ;
#134 = CARTESIAN_POINT ( 'NONE',  ( 1.316288464743861212E-13, 1.499999999999998668, 37.69999999999999574 ) ) ;
#135 = MECHANICAL_CONTEXT ( 'NONE', #1, 'mechanical' ) ;
#136 = AXIS2_PLACEMENT_3D ( 'NONE', #210, #284, #91 ) ;
#137 = CALENDAR_DATE ( 2021, 29, 11 ) ;
#138 = EDGE_LOOP ( 'NONE', ( #109 ) ) ;
#139 = EDGE_LOOP ( 'NONE', ( #163 ) ) ;
#140 = DATE_AND_TIME ( #285, #83 ) ;
#141 = FACE_OUTER_BOUND ( 'NONE', #8, .T. ) ;
#142 = AXIS2_PLACEMENT_3D ( 'NONE', #81, #79, #127 ) ;
#143 = CARTESIAN_POINT ( 'NONE',  ( 8.728703347107829444E-16, -3.061616997868381169E-17, 0.2499999999999998890 ) ) ;
#144 = PERSON_AND_ORGANIZATION ( #66, #172 ) ;
#145 = CARTESIAN_POINT ( 'NONE',  ( 6.991315447241061740E-14, -2.452223355468399598E-15, 20.02392328282516942 ) ) ;
#146 = CARTESIAN_POINT ( 'NONE',  ( 5.358479882634335789E-14, -1.879501735712542907E-15, 15.34729635533384595 ) ) ;
#147 = DIRECTION ( 'NONE',  ( 3.491481338843133355E-15, -1.224646799147352961E-16, 1.000000000000000000 ) ) ;
#148 = VERTEX_POINT ( 'NONE', #226 ) ;
#149 = DIRECTION ( 'NONE',  ( 0.0000000000000000000, -1.000000000000000000, 0.0000000000000000000 ) ) ;
#150 = APPROVAL ( #257, 'UNSPECIFIED' ) ;
#151 = FACE_OUTER_BOUND ( 'NONE', #44, .T. ) ;
#152 = CLOSED_SHELL ( 'NONE', ( #200, #114, #286, #219, #295, #251, #166, #67 ) ) ;
#153 = CARTESIAN_POINT ( 'NONE',  ( 0.0000000000000000000, 0.0000000000000000000, 0.0000000000000000000 ) ) ;
#154 = COORDINATED_UNIVERSAL_TIME_OFFSET ( 1, 0, .AHEAD. ) ;
#155 = PRODUCT_DEFINITION_FORMATION_WITH_SPECIFIED_SOURCE ( 'ANY', '', #133, .NOT_KNOWN. ) ;
#156 = DATE_AND_TIME ( #62, #58 ) ;
#157 = DESIGN_CONTEXT ( 'detailed design', #161, 'design' ) ;
#158 = PERSON_AND_ORGANIZATION ( #66, #172 ) ;
#159 = CC_DESIGN_PERSON_AND_ORGANIZATION_ASSIGNMENT ( #158, #183, ( #133 ) ) ;
#160 = CARTESIAN_POINT ( 'NONE',  ( 2.500580342918579966E-14, 0.6449999999999984635, 7.161946750507684811 ) ) ;
#161 = APPLICATION_CONTEXT ( 'configuration controlled 3d designs of mechanical parts and assemblies' ) ;
#162 = AXIS2_PLACEMENT_3D ( 'NONE', #99, #47, #9 ) ;
#163 = ORIENTED_EDGE ( 'NONE', *, *, #43, .T. ) ;
#164 = CARTESIAN_POINT ( 'NONE',  ( 1.326762908760390423E-13, 8.998558695971099120E-33, 38.00000000000000000 ) ) ;
#165 = COORDINATED_UNIVERSAL_TIME_OFFSET ( 1, 0, .AHEAD. ) ;
#166 = ADVANCED_FACE ( 'NONE', ( #189, #6 ), #42, .T. ) ;
#167 = ORIENTED_EDGE ( 'NONE', *, *, #24, .F. ) ;
#168 = DIRECTION ( 'NONE',  ( -3.491481338843133355E-15, 1.224646799147352961E-16, -1.000000000000000000 ) ) ;
#169 = APPROVAL_STATUS ( 'not_yet_approved' ) ;
#170 = CARTESIAN_POINT ( 'NONE',  ( 2.444036937190193349E-14, -8.572527594031471218E-16, 7.000000000000000000 ) ) ;
#171 = CALENDAR_DATE ( 2021, 29, 11 ) ;
#172 = ORGANIZATION ( 'UNSPECIFIED', 'UNSPECIFIED', '' ) ;
#173 = EDGE_LOOP ( 'NONE', ( #74 ) ) ;
#174 = DIRECTION ( 'NONE',  ( 0.0000000000000000000, 1.000000000000000000, 0.0000000000000000000 ) ) ;
#175 = DIRECTION ( 'NONE',  ( 0.0000000000000000000, 1.000000000000000000, 0.0000000000000000000 ) ) ;
#176 = CIRCLE ( 'NONE', #40, 0.7384999999999951603 ) ;
#177 = VERTEX_POINT ( 'NONE', #270 ) ;
#178 = VERTEX_POINT ( 'NONE', #271 ) ;
#179 = DIRECTION ( 'NONE',  ( 3.491481338843133355E-15, -1.224646799147352961E-16, 1.000000000000000000 ) ) ;
#180 = CIRCLE ( 'NONE', #228, 1.200000000000003286 ) ;
#181 = DIRECTION ( 'NONE',  ( 0.0000000000000000000, 1.000000000000000000, 0.0000000000000000000 ) ) ;
#182 = APPROVAL_ROLE ( '' ) ;
#183 = PERSON_AND_ORGANIZATION_ROLE ( 'design_owner' ) ;
#184 = DIRECTION ( 'NONE',  ( 0.0000000000000000000, 0.0000000000000000000, 1.000000000000000000 ) ) ;
#185 = CC_DESIGN_APPROVAL ( #150, ( #155 ) ) ;
#186 = ORIENTED_EDGE ( 'NONE', *, *, #272, .F. ) ;
#187 = PERSON_AND_ORGANIZATION_ROLE ( 'classification_officer' ) ;
#188 = EDGE_CURVE ( 'NONE', #84, #84, #85, .T. ) ;
#189 = FACE_OUTER_BOUND ( 'NONE', #138, .T. ) ;
#190 = PERSON_AND_ORGANIZATION ( #66, #172 ) ;
#191 = EDGE_LOOP ( 'NONE', ( #117 ) ) ;
#192 = ORIENTED_EDGE ( 'NONE', *, *, #188, .F. ) ;
#193 = FACE_OUTER_BOUND ( 'NONE', #139, .T. ) ;
#194 = CC_DESIGN_PERSON_AND_ORGANIZATION_ASSIGNMENT ( #253, #64, ( #20 ) ) ;
#195 = ORIENTED_EDGE ( 'NONE', *, *, #16, .T. ) ;
#196 = PERSON_AND_ORGANIZATION_ROLE ( 'creator' ) ;
#197 = ORIENTED_EDGE ( 'NONE', *, *, #94, .F. ) ;
#198 = CARTESIAN_POINT ( 'NONE',  ( 2.500580342918579966E-14, -8.770855163673021750E-16, 7.161946750507684811 ) ) ;
#199 = FACE_OUTER_BOUND ( 'NONE', #238, .T. ) ;
#200 = ADVANCED_FACE ( 'NONE', ( #247 ), #80, .F. ) ;
#201 = ORIENTED_EDGE ( 'NONE', *, *, #24, .T. ) ;
#202 = CARTESIAN_POINT ( 'NONE',  ( 1.326762908760390423E-13, 1.199999999999998845, 38.00000000000000000 ) ) ;
#203 = DIRECTION ( 'NONE',  ( 3.491481338843133355E-15, -1.224646799147352961E-16, 1.000000000000000000 ) ) ;
#204 = FACE_OUTER_BOUND ( 'NONE', #173, .T. ) ;
#205 = AXIS2_PLACEMENT_3D ( 'NONE', #146, #266, #243 ) ;
#206 = APPROVAL_STATUS ( 'not_yet_approved' ) ;
#207 =( NAMED_UNIT ( * ) PLANE_ANGLE_UNIT ( ) SI_UNIT ( $, .RADIAN. ) );
#208 = PRODUCT_RELATED_PRODUCT_CATEGORY ( 'detail', '', ( #133 ) ) ;
#209 = CARTESIAN_POINT ( 'NONE',  ( 0.0000000000000000000, 0.0000000000000000000, 0.0000000000000000000 ) ) ;
#210 = CARTESIAN_POINT ( 'NONE',  ( 5.237222008264700033E-14, -1.836970198721029194E-15, 15.00000000000000000 ) ) ;
#211 = DATE_AND_TIME ( #218, #63 ) ;
#212 = ORIENTED_EDGE ( 'NONE', *, *, #131, .F. ) ;
#213 = FACE_OUTER_BOUND ( 'NONE', #95, .T. ) ;
#214 = AXIS2_PLACEMENT_3D ( 'NONE', #75, #147, #149 ) ;
#215 = APPROVAL ( #169, 'UNSPECIFIED' ) ;
#216 = DIRECTION ( 'NONE',  ( -5.215788610392012806E-31, -1.000000000000000000, -1.468113977637796626E-16 ) ) ;
#217 = ORIENTED_EDGE ( 'NONE', *, *, #43, .F. ) ;
#218 = CALENDAR_DATE ( 2021, 29, 11 ) ;
#219 = ADVANCED_FACE ( 'NONE', ( #103, #38 ), #231, .F. ) ;
#220 = DIRECTION ( 'NONE',  ( -3.491481338843133355E-15, 1.224646799147352961E-16, -1.000000000000000000 ) ) ;
#221 = AXIS2_PLACEMENT_3D ( 'NONE', #71, #28, #32 ) ;
#222 = APPROVAL_PERSON_ORGANIZATION ( #144, #215, #26 ) ;
#223 = CARTESIAN_POINT ( 'NONE',  ( 2.444036937190193349E-14, 5.537862997478858091E-33, 7.000000000000000000 ) ) ;
#224 = VERTEX_POINT ( 'NONE', #100 ) ;
#225 = ORIENTED_EDGE ( 'NONE', *, *, #94, .T. ) ;
#226 = CARTESIAN_POINT ( 'NONE',  ( 2.444036937190193349E-14, 0.7384999999999942721, 7.000000000000000000 ) ) ;
#227 = ADVANCED_BREP_SHAPE_REPRESENTATION ( '961456', ( #261, #254, #113 ), #252 ) ;
#228 = AXIS2_PLACEMENT_3D ( 'NONE', #119, #220, #88 ) ;
#229 = CARTESIAN_POINT ( 'NONE',  ( 2.444036937190193349E-14, 5.537862997478858091E-33, 7.000000000000000000 ) ) ;
#230 = CARTESIAN_POINT ( 'NONE',  ( -2.216637120051765599E-31, 7.774916405086831574E-33, -6.348701038127918548E-17 ) ) ;
#231 = TOROIDAL_SURFACE ( 'NONE', #89, 2.645000000000000018, 2.000000000000000888 ) ;
#232 = VERTEX_POINT ( 'NONE', #265 ) ;
#233 = ADVANCED_FACE ( 'NONE', ( #204 ), #57, .F. ) ;
#234 = APPLICATION_PROTOCOL_DEFINITION ( 'international standard', 'config_control_design', 1994, #1 ) ;
#235 = CIRCLE ( 'NONE', #255, 0.7384999999999951603 ) ;
#236 = PERSON_AND_ORGANIZATION ( #66, #172 ) ;
#237 = EDGE_LOOP ( 'NONE', ( #260 ) ) ;
#238 = EDGE_LOOP ( 'NONE', ( #167 ) ) ;
#239 = DIRECTION ( 'NONE',  ( 4.275831445896957731E-31, 1.000000000000000000, 1.224646799147352961E-16 ) ) ;
#240 = EDGE_CURVE ( 'NONE', #87, #87, #122, .T. ) ;
#241 = CARTESIAN_POINT ( 'NONE',  ( 1.326762908760390423E-13, -4.653657836759941152E-15, 38.00000000000000000 ) ) ;
#242 =( LENGTH_UNIT ( ) NAMED_UNIT ( * ) SI_UNIT ( .MILLI., .METRE. ) );
#243 = DIRECTION ( 'NONE',  ( 0.0000000000000000000, 1.000000000000000000, 0.0000000000000000000 ) ) ;
#244 = PLANE ( 'NONE',  #53 ) ;
#245 = DIRECTION ( 'NONE',  ( 3.491481338843133355E-15, -1.224646799147352961E-16, 1.000000000000000000 ) ) ;
#246 = CYLINDRICAL_SURFACE ( 'NONE', #142, 1.500000000000000444 ) ;
#247 = FACE_OUTER_BOUND ( 'NONE', #73, .T. ) ;
#248 = AXIS2_PLACEMENT_3D ( 'NONE', #52, #287, #93 ) ;
#249 = CYLINDRICAL_SURFACE ( 'NONE', #39, 0.6449999999999997957 ) ;
#250 = DIRECTION ( 'NONE',  ( -3.491481338843133355E-15, 1.224646799147352961E-16, -1.000000000000000000 ) ) ;
#251 = ADVANCED_FACE ( 'NONE', ( #199, #275 ), #246, .T. ) ;
#252 =( GEOMETRIC_REPRESENTATION_CONTEXT ( 3 ) GLOBAL_UNCERTAINTY_ASSIGNED_CONTEXT ( ( #301 ) ) GLOBAL_UNIT_ASSIGNED_CONTEXT ( ( #242, #207, #61 ) ) REPRESENTATION_CONTEXT ( 'NONE', 'WORKASPACE' ) );
#253 = PERSON_AND_ORGANIZATION ( #66, #172 ) ;
#254 = MANIFOLD_SOLID_BREP ( 'Corps-Déplacer/Copier1[2]', #132 ) ;
#255 = AXIS2_PLACEMENT_3D ( 'NONE', #170, #5, #174 ) ;
#256 = DIRECTION ( 'NONE',  ( -3.491481338843133355E-15, 1.224646799147352961E-16, -1.000000000000000000 ) ) ;
#257 = APPROVAL_STATUS ( 'not_yet_approved' ) ;
#258 = CC_DESIGN_PERSON_AND_ORGANIZATION_ASSIGNMENT ( #92, #187, ( #107 ) ) ;
#259 = EDGE_LOOP ( 'NONE', ( #292 ) ) ;
#260 = ORIENTED_EDGE ( 'NONE', *, *, #240, .T. ) ;
#261 = MANIFOLD_SOLID_BREP ( 'Corps-Déplacer/Copier1[1]', #152 ) ;
#262 = FACE_BOUND ( 'NONE', #25, .T. ) ;
#263 = COORDINATED_UNIVERSAL_TIME_OFFSET ( 1, 0, .AHEAD. ) ;
#264 = AXIS2_PLACEMENT_3D ( 'NONE', #241, #29, #175 ) ;
#265 = CARTESIAN_POINT ( 'NONE',  ( 2.444036937190193349E-14, 0.7384999999999942721, 7.000000000000000000 ) ) ;
#266 = DIRECTION ( 'NONE',  ( -3.491481338843133355E-15, 1.224646799147352961E-16, -1.000000000000000000 ) ) ;
#267 = DATE_TIME_ROLE ( 'creation_date' ) ;
#268 = CARTESIAN_POINT ( 'NONE',  ( -4.433274240103531199E-31, 1.554983281017366315E-32, -1.269740207625583710E-16 ) ) ;
#269 = CARTESIAN_POINT ( 'NONE',  ( 5.237222008264700033E-14, -1.734723475976807094E-15, 15.00000000000000000 ) ) ;
#270 = CARTESIAN_POINT ( 'NONE',  ( 8.728703347107833388E-16, 0.7384999999999942721, 0.2500000000000000000 ) ) ;
#271 = CARTESIAN_POINT ( 'NONE',  ( 5.358479882634335789E-14, 0.6753844939755789811, 15.34729635533384595 ) ) ;
#272 = EDGE_CURVE ( 'NONE', #232, #232, #176, .T. ) ;
#273 = DIRECTION ( 'NONE',  ( 0.0000000000000000000, 1.000000000000000000, 0.0000000000000000000 ) ) ;
#274 = AXIS2_PLACEMENT_3D ( 'NONE', #268, #168, #72 ) ;
#275 = FACE_OUTER_BOUND ( 'NONE', #237, .T. ) ;
#276 = DIRECTION ( 'NONE',  ( 1.000000000000000000, 0.0000000000000000000, 0.0000000000000000000 ) ) ;
#277 = CIRCLE ( 'NONE', #136, 0.6450000000000002398 ) ;
#278 = CC_DESIGN_SECURITY_CLASSIFICATION ( #107, ( #155 ) ) ;
#279 = APPROVAL_DATE_TIME ( #156, #12 ) ;
#280 = CC_DESIGN_PERSON_AND_ORGANIZATION_ASSIGNMENT ( #190, #96, ( #155 ) ) ;
#281 = CIRCLE ( 'NONE', #205, 0.6753844939755808685 ) ;
#282 = ORIENTED_EDGE ( 'NONE', *, *, #54, .T. ) ;
#283 = DATE_TIME_ROLE ( 'classification_date' ) ;
#284 = DIRECTION ( 'NONE',  ( -3.491481338843133355E-15, 1.224646799147352961E-16, -1.000000000000000000 ) ) ;
#285 = CALENDAR_DATE ( 2021, 29, 11 ) ;
#286 = ADVANCED_FACE ( 'NONE', ( #59, #151 ), #249, .T. ) ;
#287 = DIRECTION ( 'NONE',  ( -3.491481338843133355E-15, 1.224646799147352961E-16, -1.000000000000000000 ) ) ;
#288 = EDGE_LOOP ( 'NONE', ( #217 ) ) ;
#289 = FACE_OUTER_BOUND ( 'NONE', #288, .T. ) ;
#290 = FACE_BOUND ( 'NONE', #191, .T. ) ;
#291 = VERTEX_POINT ( 'NONE', #76 ) ;
#292 = ORIENTED_EDGE ( 'NONE', *, *, #4, .F. ) ;
#293 = LOCAL_TIME ( 15, 58, 47.00000000000000000, #30 ) ;
#294 = DIRECTION ( 'NONE',  ( -3.491481338843133355E-15, 1.224646799147352961E-16, -1.000000000000000000 ) ) ;
#295 = ADVANCED_FACE ( 'NONE', ( #290, #56 ), #68, .T. ) ;
#296 = DIRECTION ( 'NONE',  ( 0.0000000000000000000, 1.000000000000000000, 0.0000000000000000000 ) ) ;
#297 = DIRECTION ( 'NONE',  ( -4.275831445896957731E-31, -1.000000000000000000, -1.224646799147352961E-16 ) ) ;
#298 = CIRCLE ( 'NONE', #162, 0.7384999999999942721 ) ;
#299 = LOCAL_TIME ( 15, 58, 47.00000000000000000, #165 ) ;
#300 = ADVANCED_FACE ( 'NONE', ( #13 ), #37, .T. ) ;
#301 = UNCERTAINTY_MEASURE_WITH_UNIT (LENGTH_MEASURE( 1.000000000000000082E-05 ), #242, 'distance_accuracy_value', 'NONE');
#302 = AXIS2_PLACEMENT_3D ( 'NONE', #230, #179, #297 ) ;
#303 = EDGE_LOOP ( 'NONE', ( #192 ) ) ;
ENDSEC;
END-ISO-10303-21;
