ISO-10303-21;
HEADER;
FILE_DESCRIPTION (( 'STEP AP203' ),
    '1' );
FILE_NAME ('961369.step',
    '2021-11-29T14:58:47',
    ( '' ),
    ( '' ),
    'SwSTEP 2.0',
    'SolidWorks 2019',
    '' );
FILE_SCHEMA (( 'CONFIG_CONTROL_DESIGN' ));
ENDSEC;

DATA;
#1 = EDGE_CURVE ( 'NONE', #120, #120, #58, .T. ) ;
#2 = ORIENTED_EDGE ( 'NONE', *, *, #13, .T. ) ;
#3 = CONICAL_SURFACE ( 'NONE', #182, 1.200000000000003286, 0.7853981633974453924 ) ;
#4 = ORIENTED_EDGE ( 'NONE', *, *, #53, .T. ) ;
#5 = ORIENTED_EDGE ( 'NONE', *, *, #151, .F. ) ;
#6 = DIRECTION ( 'NONE',  ( -3.491481338843133355E-15, 1.224646799147352961E-16, -1.000000000000000000 ) ) ;
#7 = DIRECTION ( 'NONE',  ( 4.275831445896957731E-31, 1.000000000000000000, 1.224646799147352961E-16 ) ) ;
#8 = AXIS2_PLACEMENT_3D ( 'NONE', #87, #181, #132 ) ;
#9 = CARTESIAN_POINT ( 'NONE',  ( 8.728703347107833388E-16, -3.061616997868382402E-17, 0.2500000000000000000 ) ) ;
#10 = DIRECTION ( 'NONE',  ( 3.491481338843133355E-15, -1.224646799147352961E-16, 1.000000000000000000 ) ) ;
#11 = ORIENTED_EDGE ( 'NONE', *, *, #1, .T. ) ;
#12 = DIRECTION ( 'NONE',  ( -3.491481338843133355E-15, 1.224646799147352961E-16, -1.000000000000000000 ) ) ;
#13 = EDGE_CURVE ( 'NONE', #97, #97, #243, .T. ) ;
#14 = PERSON_AND_ORGANIZATION_ROLE ( 'design_supplier' ) ;
#15 = AXIS2_PLACEMENT_3D ( 'NONE', #28, #48, #51 ) ;
#16 = CARTESIAN_POINT ( 'NONE',  ( 1.326762908760390423E-13, 1.199999999999998845, 38.00000000000000000 ) ) ;
#17 = CC_DESIGN_SECURITY_CLASSIFICATION ( #23, ( #195 ) ) ;
#18 = CARTESIAN_POINT ( 'NONE',  ( 6.382124465354758443E-14, 1.499999999999995559, 18.27913096470797427 ) ) ;
#19 = PRODUCT_DEFINITION ( 'UNKNOWN', '', #195, #149 ) ;
#20 =( NAMED_UNIT ( * ) PLANE_ANGLE_UNIT ( ) SI_UNIT ( $, .RADIAN. ) );
#21 = CALENDAR_DATE ( 2021, 29, 11 ) ;
#22 = CONICAL_SURFACE ( 'NONE', #169, 1.499999999999997558, 0.1745329251994258701 ) ;
#23 = SECURITY_CLASSIFICATION ( '', '', #174 ) ;
#24 = CC_DESIGN_PERSON_AND_ORGANIZATION_ASSIGNMENT ( #255, #143, ( #19 ) ) ;
#25 =( NAMED_UNIT ( * ) SI_UNIT ( $, .STERADIAN. ) SOLID_ANGLE_UNIT ( ) );
#26 = EDGE_LOOP ( 'NONE', ( #2 ) ) ;
#27 = EDGE_CURVE ( 'NONE', #40, #40, #119, .T. ) ;
#28 = CARTESIAN_POINT ( 'NONE',  ( 2.094888803305880013E-14, 4.975453078980699121E-33, 6.000000000000000000 ) ) ;
#29 = EDGE_LOOP ( 'NONE', ( #207 ) ) ;
#30 = CARTESIAN_POINT ( 'NONE',  ( 6.382124465354758443E-14, -2.238547922712488794E-15, 18.27913096470797427 ) ) ;
#31 = AXIS2_PLACEMENT_3D ( 'NONE', #76, #239, #218 ) ;
#32 = DIRECTION ( 'NONE',  ( -3.491481338843133355E-15, 1.224646799147352961E-16, -1.000000000000000000 ) ) ;
#33 = DIRECTION ( 'NONE',  ( 0.0000000000000000000, 1.000000000000000000, 0.0000000000000000000 ) ) ;
#34 = FACE_BOUND ( 'NONE', #184, .T. ) ;
#35 = CIRCLE ( 'NONE', #219, 0.6634999999999992015 ) ;
#36 = APPROVAL_PERSON_ORGANIZATION ( #100, #82, #83 ) ;
#37 = DIRECTION ( 'NONE',  ( 4.275831445896957731E-31, 1.000000000000000000, 1.224646799147353207E-16 ) ) ;
#38 = DIRECTION ( 'NONE',  ( 0.0000000000000000000, 1.000000000000000000, 0.0000000000000000000 ) ) ;
#39 = COORDINATED_UNIVERSAL_TIME_OFFSET ( 1, 0, .AHEAD. ) ;
#40 = VERTEX_POINT ( 'NONE', #16 ) ;
#41 = CARTESIAN_POINT ( 'NONE',  ( 0.0000000000000000000, 0.0000000000000000000, 0.0000000000000000000 ) ) ;
#42 = AXIS2_PLACEMENT_3D ( 'NONE', #237, #72, #50 ) ;
#43 = ADVANCED_FACE ( 'NONE', ( #70 ), #68, .F. ) ;
#44 = ADVANCED_FACE ( 'NONE', ( #114, #47 ), #229, .T. ) ;
#45 = ADVANCED_BREP_SHAPE_REPRESENTATION ( '961369', ( #95, #302, #49 ), #274 ) ;
#46 = FACE_OUTER_BOUND ( 'NONE', #157, .T. ) ;
#47 = FACE_OUTER_BOUND ( 'NONE', #136, .T. ) ;
#48 = DIRECTION ( 'NONE',  ( 3.491481338843133355E-15, -1.224646799147352961E-16, 1.000000000000000000 ) ) ;
#49 = AXIS2_PLACEMENT_3D ( 'NONE', #41, #103, #296 ) ;
#50 = DIRECTION ( 'NONE',  ( -2.902682659212114613E-31, -1.000000000000000000, -8.170325339001549875E-17 ) ) ;
#51 = DIRECTION ( 'NONE',  ( -4.275831445896957731E-31, -1.000000000000000000, -1.224646799147352961E-16 ) ) ;
#52 = ORIENTED_EDGE ( 'NONE', *, *, #27, .T. ) ;
#53 = EDGE_CURVE ( 'NONE', #268, #268, #139, .T. ) ;
#54 = FACE_BOUND ( 'NONE', #140, .T. ) ;
#55 = CALENDAR_DATE ( 2021, 29, 11 ) ;
#56 = CARTESIAN_POINT ( 'NONE',  ( 6.382124465354758443E-14, -2.238547922712488794E-15, 18.27913096470797427 ) ) ;
#57 = CARTESIAN_POINT ( 'NONE',  ( 2.133289939816604444E-14, 0.5999999999999980904, 6.109985226280626236 ) ) ;
#58 = CIRCLE ( 'NONE', #279, 0.5999999999999997558 ) ;
#59 = DIRECTION ( 'NONE',  ( 0.0000000000000000000, 1.000000000000000000, 0.0000000000000000000 ) ) ;
#60 = LOCAL_TIME ( 15, 58, 47.00000000000000000, #104 ) ;
#61 = CALENDAR_DATE ( 2021, 29, 11 ) ;
#62 = PERSON_AND_ORGANIZATION ( #67, #158 ) ;
#63 = CC_DESIGN_APPROVAL ( #228, ( #19 ) ) ;
#64 = CALENDAR_DATE ( 2021, 29, 11 ) ;
#65 = EDGE_LOOP ( 'NONE', ( #109 ) ) ;
#66 = CC_DESIGN_PERSON_AND_ORGANIZATION_ASSIGNMENT ( #62, #250, ( #217 ) ) ;
#67 = PERSON ( 'UNSPECIFIED', 'UNSPECIFIED', 'UNSPECIFIED', ('UNSPECIFIED'), ('UNSPECIFIED'), ('UNSPECIFIED') ) ;
#68 = PLANE ( 'NONE',  #15 ) ;
#69 = EDGE_LOOP ( 'NONE', ( #137 ) ) ;
#70 = FACE_OUTER_BOUND ( 'NONE', #65, .T. ) ;
#71 = CARTESIAN_POINT ( 'NONE',  ( 1.326762908760390423E-13, 8.998558695971099120E-33, 38.00000000000000000 ) ) ;
#72 = DIRECTION ( 'NONE',  ( 3.491481338843133355E-15, -1.224646799147352961E-16, 1.000000000000000000 ) ) ;
#73 = DIRECTION ( 'NONE',  ( -4.275831445896957731E-31, -1.000000000000000000, -1.224646799147352961E-16 ) ) ;
#74 = CARTESIAN_POINT ( 'NONE',  ( 0.0000000000000000000, 0.0000000000000000000, 0.0000000000000000000 ) ) ;
#75 = EDGE_LOOP ( 'NONE', ( #257 ) ) ;
#76 = CARTESIAN_POINT ( 'NONE',  ( 2.094888803305880013E-14, -7.347880794884118750E-16, 6.000000000000000000 ) ) ;
#77 = CALENDAR_DATE ( 2021, 29, 11 ) ;
#78 = CARTESIAN_POINT ( 'NONE',  ( 2.094888803305880013E-14, -7.347880794884118750E-16, 6.000000000000000000 ) ) ;
#79 = SHAPE_DEFINITION_REPRESENTATION ( #293, #45 ) ;
#80 = DIRECTION ( 'NONE',  ( 0.0000000000000000000, -1.000000000000000000, 0.0000000000000000000 ) ) ;
#81 = CIRCLE ( 'NONE', #199, 0.6303844939755818277 ) ;
#82 = APPROVAL ( #171, 'UNSPECIFIED' ) ;
#83 = APPROVAL_ROLE ( '' ) ;
#84 = VERTEX_POINT ( 'NONE', #152 ) ;
#85 = APPROVAL_ROLE ( '' ) ;
#86 = CARTESIAN_POINT ( 'NONE',  ( 4.660183614865709118E-14, 0.6303844939755801624, 13.34729635533384595 ) ) ;
#87 = CARTESIAN_POINT ( 'NONE',  ( 0.0000000000000000000, 0.0000000000000000000, 0.0000000000000000000 ) ) ;
#88 = ORIENTED_EDGE ( 'NONE', *, *, #13, .F. ) ;
#89 = CIRCLE ( 'NONE', #262, 0.6634999999999998677 ) ;
#90 =( LENGTH_UNIT ( ) NAMED_UNIT ( * ) SI_UNIT ( .MILLI., .METRE. ) );
#91 = DIRECTION ( 'NONE',  ( -3.491481338843133355E-15, 1.224646799147352961E-16, -1.000000000000000000 ) ) ;
#92 = ADVANCED_FACE ( 'NONE', ( #93 ), #185, .F. ) ;
#93 = FACE_OUTER_BOUND ( 'NONE', #178, .T. ) ;
#94 = PLANE ( 'NONE',  #271 ) ;
#95 = MANIFOLD_SOLID_BREP ( 'Corps-Déplacer/Copier1[1]', #168 ) ;
#96 = FACE_OUTER_BOUND ( 'NONE', #26, .T. ) ;
#97 = VERTEX_POINT ( 'NONE', #238 ) ;
#98 = EDGE_LOOP ( 'NONE', ( #121 ) ) ;
#99 = DIRECTION ( 'NONE',  ( -3.491481338843133355E-15, 1.224646799147352961E-16, -1.000000000000000000 ) ) ;
#100 = PERSON_AND_ORGANIZATION ( #67, #158 ) ;
#101 = CC_DESIGN_APPROVAL ( #223, ( #195 ) ) ;
#102 = DIRECTION ( 'NONE',  ( 3.491481338843133355E-15, -1.224646799147352961E-16, 1.000000000000000000 ) ) ;
#103 = DIRECTION ( 'NONE',  ( 0.0000000000000000000, 0.0000000000000000000, 1.000000000000000000 ) ) ;
#104 = COORDINATED_UNIVERSAL_TIME_OFFSET ( 1, 0, .AHEAD. ) ;
#105 = VERTEX_POINT ( 'NONE', #295 ) ;
#106 = TOROIDAL_SURFACE ( 'NONE', #211, 2.600000000000000089, 2.000000000000000000 ) ;
#107 = EDGE_LOOP ( 'NONE', ( #288 ) ) ;
#108 = EDGE_LOOP ( 'NONE', ( #11 ) ) ;
#109 = ORIENTED_EDGE ( 'NONE', *, *, #191, .T. ) ;
#110 = APPLICATION_CONTEXT ( 'configuration controlled 3d designs of mechanical parts and assemblies' ) ;
#111 = ADVANCED_FACE ( 'NONE', ( #133, #34 ), #3, .T. ) ;
#112 = DIRECTION ( 'NONE',  ( -3.491481338843133355E-15, 1.224646799147352961E-16, -1.000000000000000000 ) ) ;
#113 = AXIS2_PLACEMENT_3D ( 'NONE', #74, #124, #290 ) ;
#114 = FACE_BOUND ( 'NONE', #280, .T. ) ;
#115 = CC_DESIGN_PERSON_AND_ORGANIZATION_ASSIGNMENT ( #128, #264, ( #23 ) ) ;
#116 = CARTESIAN_POINT ( 'NONE',  ( 1.326762908760390423E-13, -4.653657836759941152E-15, 38.00000000000000000 ) ) ;
#117 = ADVANCED_FACE ( 'NONE', ( #46 ), #94, .T. ) ;
#118 = FACE_OUTER_BOUND ( 'NONE', #107, .T. ) ;
#119 = CIRCLE ( 'NONE', #131, 1.200000000000003286 ) ;
#120 = VERTEX_POINT ( 'NONE', #241 ) ;
#121 = ORIENTED_EDGE ( 'NONE', *, *, #151, .T. ) ;
#122 = CARTESIAN_POINT ( 'NONE',  ( 4.538925740496073362E-14, -1.734723475976807094E-15, 13.00000000000000000 ) ) ;
#123 = PERSON_AND_ORGANIZATION_ROLE ( 'creator' ) ;
#124 = DIRECTION ( 'NONE',  ( -3.491481338843133355E-15, 1.224646799147352961E-16, -1.000000000000000000 ) ) ;
#125 = AXIS2_PLACEMENT_3D ( 'NONE', #208, #6, #33 ) ;
#126 = APPROVAL_PERSON_ORGANIZATION ( #254, #228, #85 ) ;
#127 = ADVANCED_FACE ( 'NONE', ( #253, #232 ), #303, .T. ) ;
#128 = PERSON_AND_ORGANIZATION ( #67, #158 ) ;
#129 = AXIS2_PLACEMENT_3D ( 'NONE', #30, #112, #231 ) ;
#130 = VERTEX_POINT ( 'NONE', #86 ) ;
#131 = AXIS2_PLACEMENT_3D ( 'NONE', #204, #32, #164 ) ;
#132 = DIRECTION ( 'NONE',  ( 4.275831445896956855E-31, 1.000000000000000000, 1.224646799147352961E-16 ) ) ;
#133 = FACE_OUTER_BOUND ( 'NONE', #75, .T. ) ;
#134 = AXIS2_PLACEMENT_3D ( 'NONE', #216, #170, #294 ) ;
#135 = ORIENTED_EDGE ( 'NONE', *, *, #191, .F. ) ;
#136 = EDGE_LOOP ( 'NONE', ( #161 ) ) ;
#137 = ORIENTED_EDGE ( 'NONE', *, *, #53, .F. ) ;
#138 = CYLINDRICAL_SURFACE ( 'NONE', #163, 1.500000000000000444 ) ;
#139 = CIRCLE ( 'NONE', #125, 0.5999999999999988676 ) ;
#140 = EDGE_LOOP ( 'NONE', ( #4 ) ) ;
#141 = LOCAL_TIME ( 15, 58, 47.00000000000000000, #298 ) ;
#142 = DIRECTION ( 'NONE',  ( 2.902682659212114613E-31, 1.000000000000000000, 8.170325339001549875E-17 ) ) ;
#143 = PERSON_AND_ORGANIZATION_ROLE ( 'creator' ) ;
#144 = FACE_OUTER_BOUND ( 'NONE', #276, .T. ) ;
#145 = DATE_AND_TIME ( #77, #141 ) ;
#146 = DIRECTION ( 'NONE',  ( 0.0000000000000000000, 1.000000000000000000, 0.0000000000000000000 ) ) ;
#147 = DATE_TIME_ROLE ( 'classification_date' ) ;
#148 = DIRECTION ( 'NONE',  ( -3.491481338843133355E-15, 1.224646799147352961E-16, -1.000000000000000000 ) ) ;
#149 = DESIGN_CONTEXT ( 'detailed design', #110, 'design' ) ;
#150 = CIRCLE ( 'NONE', #31, 0.6634999999999998677 ) ;
#151 = EDGE_CURVE ( 'NONE', #242, #242, #301, .T. ) ;
#152 = CARTESIAN_POINT ( 'NONE',  ( 8.728703347107835360E-16, 0.6634999999999992015, 0.2500000000000000555 ) ) ;
#153 = ORIENTED_EDGE ( 'NONE', *, *, #1, .F. ) ;
#154 = DATE_AND_TIME ( #64, #234 ) ;
#155 = CONICAL_SURFACE ( 'NONE', #177, 0.5999999999999988676, 0.5235987755982965952 ) ;
#156 = LOCAL_TIME ( 15, 58, 47.00000000000000000, #222 ) ;
#157 = EDGE_LOOP ( 'NONE', ( #162 ) ) ;
#158 = ORGANIZATION ( 'UNSPECIFIED', 'UNSPECIFIED', '' ) ;
#159 = EDGE_CURVE ( 'NONE', #105, #105, #176, .T. ) ;
#160 = ORIENTED_EDGE ( 'NONE', *, *, #227, .F. ) ;
#161 = ORIENTED_EDGE ( 'NONE', *, *, #227, .T. ) ;
#162 = ORIENTED_EDGE ( 'NONE', *, *, #297, .F. ) ;
#163 = AXIS2_PLACEMENT_3D ( 'NONE', #189, #198, #37 ) ;
#164 = DIRECTION ( 'NONE',  ( 0.0000000000000000000, 1.000000000000000000, 0.0000000000000000000 ) ) ;
#165 = DIRECTION ( 'NONE',  ( 3.491481338843133355E-15, -1.224646799147352961E-16, 1.000000000000000000 ) ) ;
#166 = DIRECTION ( 'NONE',  ( 4.275831445896957731E-31, 1.000000000000000000, 1.224646799147352961E-16 ) ) ;
#167 = FACE_OUTER_BOUND ( 'NONE', #256, .T. ) ;
#168 = CLOSED_SHELL ( 'NONE', ( #43, #180, #127, #233, #267, #209, #111, #92 ) ) ;
#169 = AXIS2_PLACEMENT_3D ( 'NONE', #56, #102, #80 ) ;
#170 = DIRECTION ( 'NONE',  ( -3.491481338843133355E-15, 1.224646799147352961E-16, -1.000000000000000000 ) ) ;
#171 = APPROVAL_STATUS ( 'not_yet_approved' ) ;
#172 = CC_DESIGN_PERSON_AND_ORGANIZATION_ASSIGNMENT ( #289, #123, ( #195 ) ) ;
#173 = FACE_OUTER_BOUND ( 'NONE', #205, .T. ) ;
#174 = SECURITY_CLASSIFICATION_LEVEL ( 'unclassified' ) ;
#175 = DIRECTION ( 'NONE',  ( -3.491481338843133355E-15, 1.224646799147352961E-16, -1.000000000000000000 ) ) ;
#176 = CIRCLE ( 'NONE', #134, 1.500000000000003331 ) ;
#177 = AXIS2_PLACEMENT_3D ( 'NONE', #286, #99, #59 ) ;
#178 = EDGE_LOOP ( 'NONE', ( #215 ) ) ;
#179 = APPROVAL_DATE_TIME ( #154, #228 ) ;
#180 = ADVANCED_FACE ( 'NONE', ( #167, #54 ), #155, .T. ) ;
#181 = DIRECTION ( 'NONE',  ( -3.491481338843133355E-15, 1.224646799147352961E-16, -1.000000000000000000 ) ) ;
#182 = AXIS2_PLACEMENT_3D ( 'NONE', #116, #210, #202 ) ;
#183 = DIRECTION ( 'NONE',  ( -4.275831445896957731E-31, -1.000000000000000000, -1.224646799147352961E-16 ) ) ;
#184 = EDGE_LOOP ( 'NONE', ( #52 ) ) ;
#185 = PLANE ( 'NONE',  #206 ) ;
#186 = CLOSED_SHELL ( 'NONE', ( #291, #44, #281, #117 ) ) ;
#187 = CARTESIAN_POINT ( 'NONE',  ( 2.094888803305880013E-14, 4.975453078980699121E-33, 6.000000000000000000 ) ) ;
#188 = APPROVAL_PERSON_ORGANIZATION ( #272, #223, #240 ) ;
#189 = CARTESIAN_POINT ( 'NONE',  ( 0.0000000000000000000, 0.0000000000000000000, 0.0000000000000000000 ) ) ;
#190 = CARTESIAN_POINT ( 'NONE',  ( 2.094888803305880013E-14, 0.6634999999999992015, 6.000000000000000000 ) ) ;
#191 = EDGE_CURVE ( 'NONE', #270, #270, #89, .T. ) ;
#192 = ORIENTED_EDGE ( 'NONE', *, *, #159, .T. ) ;
#193 = APPROVAL_DATE_TIME ( #145, #223 ) ;
#194 = FACE_BOUND ( 'NONE', #252, .T. ) ;
#195 = PRODUCT_DEFINITION_FORMATION_WITH_SPECIFIED_SOURCE ( 'ANY', '', #217, .NOT_KNOWN. ) ;
#196 = CYLINDRICAL_SURFACE ( 'NONE', #113, 0.6634999999999996456 ) ;
#197 = APPLICATION_CONTEXT ( 'configuration controlled 3d designs of mechanical parts and assemblies' ) ;
#198 = DIRECTION ( 'NONE',  ( -3.491481338843133355E-15, 1.224646799147352961E-16, -1.000000000000000000 ) ) ;
#199 = AXIS2_PLACEMENT_3D ( 'NONE', #214, #12, #146 ) ;
#200 = MECHANICAL_CONTEXT ( 'NONE', #197, 'mechanical' ) ;
#201 = APPLICATION_PROTOCOL_DEFINITION ( 'international standard', 'config_control_design', 1994, #110 ) ;
#202 = DIRECTION ( 'NONE',  ( 0.0000000000000000000, 1.000000000000000000, 0.0000000000000000000 ) ) ;
#203 = ORIENTED_EDGE ( 'NONE', *, *, #249, .F. ) ;
#204 = CARTESIAN_POINT ( 'NONE',  ( 1.326762908760390423E-13, -4.653657836759941152E-15, 38.00000000000000000 ) ) ;
#205 = EDGE_LOOP ( 'NONE', ( #160 ) ) ;
#206 = AXIS2_PLACEMENT_3D ( 'NONE', #71, #259, #7 ) ;
#207 = ORIENTED_EDGE ( 'NONE', *, *, #249, .T. ) ;
#208 = CARTESIAN_POINT ( 'NONE',  ( 2.133289939816604444E-14, -7.482573850202184378E-16, 6.109985226280626236 ) ) ;
#209 = ADVANCED_FACE ( 'NONE', ( #265, #212 ), #138, .T. ) ;
#210 = DIRECTION ( 'NONE',  ( -3.491481338843133355E-15, 1.224646799147352961E-16, -1.000000000000000000 ) ) ;
#211 = AXIS2_PLACEMENT_3D ( 'NONE', #122, #175, #166 ) ;
#212 = FACE_OUTER_BOUND ( 'NONE', #278, .T. ) ;
#213 = CC_DESIGN_APPROVAL ( #82, ( #23 ) ) ;
#214 = CARTESIAN_POINT ( 'NONE',  ( 4.660183614865709118E-14, -1.634572375883072414E-15, 13.34729635533384595 ) ) ;
#215 = ORIENTED_EDGE ( 'NONE', *, *, #27, .F. ) ;
#216 = CARTESIAN_POINT ( 'NONE',  ( 1.316288464743861212E-13, -4.616918432785520292E-15, 37.69999999999999574 ) ) ;
#217 = PRODUCT ( '961369', '961369', '', ( #200 ) ) ;
#218 = DIRECTION ( 'NONE',  ( 0.0000000000000000000, 1.000000000000000000, 0.0000000000000000000 ) ) ;
#219 = AXIS2_PLACEMENT_3D ( 'NONE', #9, #148, #142 ) ;
#220 = PERSON_AND_ORGANIZATION ( #67, #158 ) ;
#221 = FACE_OUTER_BOUND ( 'NONE', #98, .T. ) ;
#222 = COORDINATED_UNIVERSAL_TIME_OFFSET ( 1, 0, .AHEAD. ) ;
#223 = APPROVAL ( #248, 'UNSPECIFIED' ) ;
#224 = VERTEX_POINT ( 'NONE', #258 ) ;
#225 = APPLICATION_PROTOCOL_DEFINITION ( 'international standard', 'config_control_design', 1994, #197 ) ;
#226 = LOCAL_TIME ( 15, 58, 47.00000000000000000, #39 ) ;
#227 = EDGE_CURVE ( 'NONE', #84, #84, #35, .T. ) ;
#228 = APPROVAL ( #230, 'UNSPECIFIED' ) ;
#229 = CONICAL_SURFACE ( 'NONE', #42, 0.6634999999999992015, 0.5235987755982924874 ) ;
#230 = APPROVAL_STATUS ( 'not_yet_approved' ) ;
#231 = DIRECTION ( 'NONE',  ( 0.0000000000000000000, 1.000000000000000000, 0.0000000000000000000 ) ) ;
#232 = FACE_OUTER_BOUND ( 'NONE', #108, .T. ) ;
#233 = ADVANCED_FACE ( 'NONE', ( #144, #287 ), #106, .F. ) ;
#234 = LOCAL_TIME ( 15, 58, 47.00000000000000000, #275 ) ;
#235 = DIRECTION ( 'NONE',  ( 4.275831445896957731E-31, 1.000000000000000000, 1.224646799147352714E-16 ) ) ;
#236 = DIRECTION ( 'NONE',  ( -3.491481338843133355E-15, 1.224646799147352961E-16, -1.000000000000000000 ) ) ;
#237 = CARTESIAN_POINT ( 'NONE',  ( 8.728703347107833388E-16, -3.061616997868382402E-17, 0.2500000000000000000 ) ) ;
#238 = CARTESIAN_POINT ( 'NONE',  ( -9.463679131915806782E-32, 0.5191624327025947672, -2.710505431213761085E-17 ) ) ;
#239 = DIRECTION ( 'NONE',  ( -3.491481338843133355E-15, 1.224646799147352961E-16, -1.000000000000000000 ) ) ;
#240 = APPROVAL_ROLE ( '' ) ;
#241 = CARTESIAN_POINT ( 'NONE',  ( 4.538925740496073993E-14, 0.5999999999999980904, 13.00000000000000178 ) ) ;
#242 = VERTEX_POINT ( 'NONE', #18 ) ;
#243 = CIRCLE ( 'NONE', #284, 0.5191624327025947672 ) ;
#244 = DATE_TIME_ROLE ( 'creation_date' ) ;
#245 = CARTESIAN_POINT ( 'NONE',  ( -1.583109484234849155E-31, 5.552800586384946404E-33, -4.534205772840808687E-17 ) ) ;
#246 = CC_DESIGN_PERSON_AND_ORGANIZATION_ASSIGNMENT ( #220, #14, ( #195 ) ) ;
#247 = DATE_AND_TIME ( #61, #60 ) ;
#248 = APPROVAL_STATUS ( 'not_yet_approved' ) ;
#249 = EDGE_CURVE ( 'NONE', #130, #130, #81, .T. ) ;
#250 = PERSON_AND_ORGANIZATION_ROLE ( 'design_owner' ) ;
#251 = AXIS2_PLACEMENT_3D ( 'NONE', #245, #10, #73 ) ;
#252 = EDGE_LOOP ( 'NONE', ( #203 ) ) ;
#253 = FACE_OUTER_BOUND ( 'NONE', #69, .T. ) ;
#254 = PERSON_AND_ORGANIZATION ( #67, #158 ) ;
#255 = PERSON_AND_ORGANIZATION ( #67, #158 ) ;
#256 = EDGE_LOOP ( 'NONE', ( #135 ) ) ;
#257 = ORIENTED_EDGE ( 'NONE', *, *, #159, .F. ) ;
#258 = CARTESIAN_POINT ( 'NONE',  ( 2.094888803305880013E-14, 0.6634999999999992015, 6.000000000000000000 ) ) ;
#259 = DIRECTION ( 'NONE',  ( -3.491481338843133355E-15, 1.224646799147352961E-16, -1.000000000000000000 ) ) ;
#260 = DIRECTION ( 'NONE',  ( 0.0000000000000000000, 1.000000000000000000, 0.0000000000000000000 ) ) ;
#261 = DIRECTION ( 'NONE',  ( -3.491481338843133355E-15, 1.224646799147352961E-16, -1.000000000000000000 ) ) ;
#262 = AXIS2_PLACEMENT_3D ( 'NONE', #78, #261, #38 ) ;
#263 = PLANE ( 'NONE',  #251 ) ;
#264 = PERSON_AND_ORGANIZATION_ROLE ( 'classification_officer' ) ;
#265 = FACE_OUTER_BOUND ( 'NONE', #283, .T. ) ;
#266 = DATE_AND_TIME ( #55, #226 ) ;
#267 = ADVANCED_FACE ( 'NONE', ( #194, #221 ), #22, .T. ) ;
#268 = VERTEX_POINT ( 'NONE', #57 ) ;
#269 = PRODUCT_RELATED_PRODUCT_CATEGORY ( 'detail', '', ( #217 ) ) ;
#270 = VERTEX_POINT ( 'NONE', #190 ) ;
#271 = AXIS2_PLACEMENT_3D ( 'NONE', #187, #165, #183 ) ;
#272 = PERSON_AND_ORGANIZATION ( #67, #158 ) ;
#273 = APPROVAL_DATE_TIME ( #266, #82 ) ;
#274 =( GEOMETRIC_REPRESENTATION_CONTEXT ( 3 ) GLOBAL_UNCERTAINTY_ASSIGNED_CONTEXT ( ( #300 ) ) GLOBAL_UNIT_ASSIGNED_CONTEXT ( ( #90, #20, #25 ) ) REPRESENTATION_CONTEXT ( 'NONE', 'WORKASPACE' ) );
#275 = COORDINATED_UNIVERSAL_TIME_OFFSET ( 1, 0, .AHEAD. ) ;
#276 = EDGE_LOOP ( 'NONE', ( #153 ) ) ;
#277 = CC_DESIGN_DATE_AND_TIME_ASSIGNMENT ( #247, #147, ( #23 ) ) ;
#278 = EDGE_LOOP ( 'NONE', ( #192 ) ) ;
#279 = AXIS2_PLACEMENT_3D ( 'NONE', #285, #91, #260 ) ;
#280 = EDGE_LOOP ( 'NONE', ( #88 ) ) ;
#281 = ADVANCED_FACE ( 'NONE', ( #173, #118 ), #196, .T. ) ;
#282 = CARTESIAN_POINT ( 'NONE',  ( -3.166218968469698309E-31, 1.110560117276989281E-32, -9.068411545681617374E-17 ) ) ;
#283 = EDGE_LOOP ( 'NONE', ( #5 ) ) ;
#284 = AXIS2_PLACEMENT_3D ( 'NONE', #282, #236, #235 ) ;
#285 = CARTESIAN_POINT ( 'NONE',  ( 4.538925740496073993E-14, -1.592040838891558898E-15, 13.00000000000000178 ) ) ;
#286 = CARTESIAN_POINT ( 'NONE',  ( 2.133289939816604444E-14, -7.482573850202184378E-16, 6.109985226280626236 ) ) ;
#287 = FACE_OUTER_BOUND ( 'NONE', #29, .T. ) ;
#288 = ORIENTED_EDGE ( 'NONE', *, *, #297, .T. ) ;
#289 = PERSON_AND_ORGANIZATION ( #67, #158 ) ;
#290 = DIRECTION ( 'NONE',  ( 4.275831445896957731E-31, 1.000000000000000000, 1.224646799147352961E-16 ) ) ;
#291 = ADVANCED_FACE ( 'NONE', ( #96 ), #263, .F. ) ;
#292 = DATE_AND_TIME ( #21, #156 ) ;
#293 = PRODUCT_DEFINITION_SHAPE ( 'NONE', 'NONE',  #19 ) ;
#294 = DIRECTION ( 'NONE',  ( 0.0000000000000000000, 1.000000000000000000, 0.0000000000000000000 ) ) ;
#295 = CARTESIAN_POINT ( 'NONE',  ( 1.316288464743861212E-13, 1.499999999999998668, 37.69999999999999574 ) ) ;
#296 = DIRECTION ( 'NONE',  ( 1.000000000000000000, 0.0000000000000000000, 0.0000000000000000000 ) ) ;
#297 = EDGE_CURVE ( 'NONE', #224, #224, #150, .T. ) ;
#298 = COORDINATED_UNIVERSAL_TIME_OFFSET ( 1, 0, .AHEAD. ) ;
#299 = CC_DESIGN_DATE_AND_TIME_ASSIGNMENT ( #292, #244, ( #19 ) ) ;
#300 = UNCERTAINTY_MEASURE_WITH_UNIT (LENGTH_MEASURE( 1.000000000000000082E-05 ), #90, 'distance_accuracy_value', 'NONE');
#301 = CIRCLE ( 'NONE', #129, 1.499999999999997558 ) ;
#302 = MANIFOLD_SOLID_BREP ( 'Corps-Déplacer/Copier1[2]', #186 ) ;
#303 = CYLINDRICAL_SURFACE ( 'NONE', #8, 0.5999999999999993117 ) ;
ENDSEC;
END-ISO-10303-21;
