ISO-10303-21;
HEADER;
FILE_DESCRIPTION (( 'STEP AP203' ),
    '1' );
FILE_NAME ('961345.step',
    '2021-11-29T14:58:46',
    ( '' ),
    ( '' ),
    'SwSTEP 2.0',
    'SolidWorks 2019',
    '' );
FILE_SCHEMA (( 'CONFIG_CONTROL_DESIGN' ));
ENDSEC;

DATA;
#1 = APPROVAL_DATE_TIME ( #229, #259 ) ;
#2 = EDGE_LOOP ( 'NONE', ( #101 ) ) ;
#3 = APPROVAL_ROLE ( '' ) ;
#4 = AXIS2_PLACEMENT_3D ( 'NONE', #57, #130, #217 ) ;
#5 = EDGE_CURVE ( 'NONE', #30, #30, #222, .T. ) ;
#6 = AXIS2_PLACEMENT_3D ( 'NONE', #237, #194, #96 ) ;
#7 = FACE_OUTER_BOUND ( 'NONE', #83, .T. ) ;
#8 = APPLICATION_CONTEXT ( 'configuration controlled 3d designs of mechanical parts and assemblies' ) ;
#9 = PERSON_AND_ORGANIZATION_ROLE ( 'classification_officer' ) ;
#10 = VERTEX_POINT ( 'NONE', #287 ) ;
#11 = PERSON_AND_ORGANIZATION_ROLE ( 'creator' ) ;
#12 = ORIENTED_EDGE ( 'NONE', *, *, #179, .F. ) ;
#13 = LOCAL_TIME ( 15, 58, 46.00000000000000000, #186 ) ;
#14 = FACE_OUTER_BOUND ( 'NONE', #17, .T. ) ;
#15 = CARTESIAN_POINT ( 'NONE',  ( -4.369136768415096324E-31, 1.532486884277445676E-32, -1.251370505638379245E-16 ) ) ;
#16 =( LENGTH_UNIT ( ) NAMED_UNIT ( * ) SI_UNIT ( .MILLI., .METRE. ) );
#17 = EDGE_LOOP ( 'NONE', ( #160 ) ) ;
#18 = CC_DESIGN_PERSON_AND_ORGANIZATION_ASSIGNMENT ( #168, #139, ( #148 ) ) ;
#19 = SECURITY_CLASSIFICATION ( '', '', #255 ) ;
#20 = DIRECTION ( 'NONE',  ( 0.0000000000000000000, 1.000000000000000000, 0.0000000000000000000 ) ) ;
#21 = CARTESIAN_POINT ( 'NONE',  ( 1.316288464743861212E-13, -4.616918432785520292E-15, 37.69999999999999574 ) ) ;
#22 = DIRECTION ( 'NONE',  ( -3.491481338843133355E-15, 1.224646799147352961E-16, -1.000000000000000000 ) ) ;
#23 = FACE_OUTER_BOUND ( 'NONE', #286, .T. ) ;
#24 = AXIS2_PLACEMENT_3D ( 'NONE', #188, #233, #263 ) ;
#25 = CARTESIAN_POINT ( 'NONE',  ( 5.237222008264700033E-14, 0.6399999999999982370, 15.00000000000000000 ) ) ;
#26 = CARTESIAN_POINT ( 'NONE',  ( 1.326762908760390423E-13, 8.998558695971099120E-33, 38.00000000000000000 ) ) ;
#27 = EDGE_LOOP ( 'NONE', ( #234 ) ) ;
#28 = FACE_OUTER_BOUND ( 'NONE', #53, .T. ) ;
#29 = CIRCLE ( 'NONE', #102, 0.6400000000000000133 ) ;
#30 = VERTEX_POINT ( 'NONE', #213 ) ;
#31 = SHAPE_DEFINITION_REPRESENTATION ( #111, #36 ) ;
#32 = APPLICATION_PROTOCOL_DEFINITION ( 'international standard', 'config_control_design', 1994, #276 ) ;
#33 = AXIS2_PLACEMENT_3D ( 'NONE', #21, #129, #296 ) ;
#34 = LOCAL_TIME ( 15, 58, 46.00000000000000000, #98 ) ;
#35 = CARTESIAN_POINT ( 'NONE',  ( 1.326762908760390423E-13, -4.653657836759941152E-15, 38.00000000000000000 ) ) ;
#36 = ADVANCED_BREP_SHAPE_REPRESENTATION ( '961345', ( #249, #146, #6 ), #203 ) ;
#37 = DIRECTION ( 'NONE',  ( 4.275831445896957731E-31, 1.000000000000000000, 1.224646799147352961E-16 ) ) ;
#38 = CARTESIAN_POINT ( 'NONE',  ( 2.494532919846027797E-14, -8.749643658898533685E-16, 7.144626242432004837 ) ) ;
#39 = CC_DESIGN_PERSON_AND_ORGANIZATION_ASSIGNMENT ( #214, #284, ( #201 ) ) ;
#40 = EDGE_LOOP ( 'NONE', ( #123 ) ) ;
#41 = ADVANCED_FACE ( 'NONE', ( #195, #149 ), #94, .T. ) ;
#42 = CC_DESIGN_PERSON_AND_ORGANIZATION_ASSIGNMENT ( #93, #142, ( #184 ) ) ;
#43 = AXIS2_PLACEMENT_3D ( 'NONE', #26, #207, #230 ) ;
#44 = DATE_AND_TIME ( #291, #251 ) ;
#45 = DIRECTION ( 'NONE',  ( 0.0000000000000000000, 1.000000000000000000, 0.0000000000000000000 ) ) ;
#46 = EDGE_LOOP ( 'NONE', ( #294 ) ) ;
#47 = APPROVAL_ROLE ( '' ) ;
#48 = FACE_OUTER_BOUND ( 'NONE', #126, .T. ) ;
#49 = CALENDAR_DATE ( 2021, 29, 11 ) ;
#50 = ORIENTED_EDGE ( 'NONE', *, *, #121, .F. ) ;
#51 = CALENDAR_DATE ( 2021, 29, 11 ) ;
#52 = ADVANCED_FACE ( 'NONE', ( #104, #145 ), #211, .T. ) ;
#53 = EDGE_LOOP ( 'NONE', ( #134 ) ) ;
#54 = CARTESIAN_POINT ( 'NONE',  ( 5.358479882634335789E-14, 0.6703844939755787546, 15.34729635533384595 ) ) ;
#55 = AXIS2_PLACEMENT_3D ( 'NONE', #292, #143, #147 ) ;
#56 = ADVANCED_FACE ( 'NONE', ( #202, #14 ), #159, .T. ) ;
#57 = CARTESIAN_POINT ( 'NONE',  ( 7.001216034561318911E-14, -2.455696014032128781E-15, 20.05227969192325688 ) ) ;
#58 = CYLINDRICAL_SURFACE ( 'NONE', #73, 0.7234999999999996989 ) ;
#59 = DIRECTION ( 'NONE',  ( -5.323925209087042365E-31, -1.000000000000000000, -1.498551724237049625E-16 ) ) ;
#60 = AXIS2_PLACEMENT_3D ( 'NONE', #122, #227, #70 ) ;
#61 = DIRECTION ( 'NONE',  ( -3.491481338843133355E-15, 1.224646799147352961E-16, -1.000000000000000000 ) ) ;
#62 = CARTESIAN_POINT ( 'NONE',  ( 2.444036937190193349E-14, 5.425381013779256267E-33, 7.000000000000000000 ) ) ;
#63 = PLANE ( 'NONE',  #43 ) ;
#64 = EDGE_LOOP ( 'NONE', ( #110 ) ) ;
#65 = CONICAL_SURFACE ( 'NONE', #95, 1.200000000000003286, 0.7853981633974453924 ) ;
#66 = DATE_AND_TIME ( #258, #13 ) ;
#67 = DIRECTION ( 'NONE',  ( -3.491481338843133355E-15, 1.224646799147352961E-16, -1.000000000000000000 ) ) ;
#68 = DATE_TIME_ROLE ( 'creation_date' ) ;
#69 = PERSON ( 'UNSPECIFIED', 'UNSPECIFIED', 'UNSPECIFIED', ('UNSPECIFIED'), ('UNSPECIFIED'), ('UNSPECIFIED') ) ;
#70 = DIRECTION ( 'NONE',  ( 0.0000000000000000000, 1.000000000000000000, 0.0000000000000000000 ) ) ;
#71 = CARTESIAN_POINT ( 'NONE',  ( 8.728703347107835360E-16, 0.7234999999999993658, 0.2500000000000000555 ) ) ;
#72 = APPROVAL_STATUS ( 'not_yet_approved' ) ;
#73 = AXIS2_PLACEMENT_3D ( 'NONE', #216, #61, #297 ) ;
#74 = CC_DESIGN_DATE_AND_TIME_ASSIGNMENT ( #288, #189, ( #19 ) ) ;
#75 = APPROVAL_ROLE ( '' ) ;
#76 = DIRECTION ( 'NONE',  ( -3.491481338843133355E-15, 1.224646799147352961E-16, -1.000000000000000000 ) ) ;
#77 = ORIENTED_EDGE ( 'NONE', *, *, #136, .F. ) ;
#78 =( NAMED_UNIT ( * ) PLANE_ANGLE_UNIT ( ) SI_UNIT ( $, .RADIAN. ) );
#79 = AXIS2_PLACEMENT_3D ( 'NONE', #38, #271, #20 ) ;
#80 = AXIS2_PLACEMENT_3D ( 'NONE', #112, #22, #275 ) ;
#81 = ADVANCED_FACE ( 'NONE', ( #218 ), #84, .T. ) ;
#82 = CARTESIAN_POINT ( 'NONE',  ( -2.184568384207548162E-31, 7.662434421387228381E-33, -6.256852528191896227E-17 ) ) ;
#83 = EDGE_LOOP ( 'NONE', ( #193 ) ) ;
#84 = PLANE ( 'NONE',  #86 ) ;
#85 = ADVANCED_FACE ( 'NONE', ( #176, #105 ), #65, .T. ) ;
#86 = AXIS2_PLACEMENT_3D ( 'NONE', #175, #124, #242 ) ;
#87 = ADVANCED_FACE ( 'NONE', ( #273 ), #108, .F. ) ;
#88 = CARTESIAN_POINT ( 'NONE',  ( 0.0000000000000000000, 0.0000000000000000000, 0.0000000000000000000 ) ) ;
#89 = CARTESIAN_POINT ( 'NONE',  ( 5.358479882634335789E-14, -1.879501735712542907E-15, 15.34729635533384595 ) ) ;
#90 = VERTEX_POINT ( 'NONE', #71 ) ;
#91 = FACE_OUTER_BOUND ( 'NONE', #46, .T. ) ;
#92 = VERTEX_POINT ( 'NONE', #180 ) ;
#93 = PERSON_AND_ORGANIZATION ( #69, #199 ) ;
#94 = CONICAL_SURFACE ( 'NONE', #4, 1.499999999999997780, 0.1745329251994261199 ) ;
#95 = AXIS2_PLACEMENT_3D ( 'NONE', #220, #246, #198 ) ;
#96 = DIRECTION ( 'NONE',  ( 1.000000000000000000, 0.0000000000000000000, 0.0000000000000000000 ) ) ;
#97 = DIRECTION ( 'NONE',  ( 4.275831445896957731E-31, 1.000000000000000000, 1.224646799147352961E-16 ) ) ;
#98 = COORDINATED_UNIVERSAL_TIME_OFFSET ( 1, 0, .AHEAD. ) ;
#99 = CC_DESIGN_PERSON_AND_ORGANIZATION_ASSIGNMENT ( #120, #11, ( #184 ) ) ;
#100 = COORDINATED_UNIVERSAL_TIME_OFFSET ( 1, 0, .AHEAD. ) ;
#101 = ORIENTED_EDGE ( 'NONE', *, *, #240, .F. ) ;
#102 = AXIS2_PLACEMENT_3D ( 'NONE', #256, #164, #45 ) ;
#103 = FACE_OUTER_BOUND ( 'NONE', #264, .T. ) ;
#104 = FACE_OUTER_BOUND ( 'NONE', #238, .T. ) ;
#105 = FACE_BOUND ( 'NONE', #64, .T. ) ;
#106 = CIRCLE ( 'NONE', #80, 1.499999999999997780 ) ;
#107 = CIRCLE ( 'NONE', #55, 0.7235000000000001430 ) ;
#108 = PLANE ( 'NONE',  #289 ) ;
#109 = ADVANCED_FACE ( 'NONE', ( #103, #270 ), #58, .T. ) ;
#110 = ORIENTED_EDGE ( 'NONE', *, *, #121, .T. ) ;
#111 = PRODUCT_DEFINITION_SHAPE ( 'NONE', 'NONE',  #148 ) ;
#112 = CARTESIAN_POINT ( 'NONE',  ( 7.001216034561318911E-14, -2.455696014032128781E-15, 20.05227969192325688 ) ) ;
#113 = LOCAL_TIME ( 15, 58, 46.00000000000000000, #161 ) ;
#114 = EDGE_CURVE ( 'NONE', #127, #127, #107, .T. ) ;
#115 = PRODUCT_RELATED_PRODUCT_CATEGORY ( 'detail', '', ( #201 ) ) ;
#116 = CIRCLE ( 'NONE', #138, 0.7235000000000001430 ) ;
#117 = FACE_OUTER_BOUND ( 'NONE', #219, .T. ) ;
#118 = EDGE_LOOP ( 'NONE', ( #162 ) ) ;
#119 = CARTESIAN_POINT ( 'NONE',  ( 5.237222008264700033E-14, -1.734723475976807094E-15, 15.00000000000000000 ) ) ;
#120 = PERSON_AND_ORGANIZATION ( #69, #199 ) ;
#121 = EDGE_CURVE ( 'NONE', #92, #92, #177, .T. ) ;
#122 = CARTESIAN_POINT ( 'NONE',  ( 2.494532919846027797E-14, -8.749643658898533685E-16, 7.144626242432004837 ) ) ;
#123 = ORIENTED_EDGE ( 'NONE', *, *, #187, .T. ) ;
#124 = DIRECTION ( 'NONE',  ( 3.491481338843133355E-15, -1.224646799147352961E-16, 1.000000000000000000 ) ) ;
#125 = APPROVAL_PERSON_ORGANIZATION ( #137, #259, #47 ) ;
#126 = EDGE_LOOP ( 'NONE', ( #165 ) ) ;
#127 = VERTEX_POINT ( 'NONE', #253 ) ;
#128 = DIRECTION ( 'NONE',  ( 3.491481338843133355E-15, -1.224646799147352961E-16, 1.000000000000000000 ) ) ;
#129 = DIRECTION ( 'NONE',  ( -3.491481338843133355E-15, 1.224646799147352961E-16, -1.000000000000000000 ) ) ;
#130 = DIRECTION ( 'NONE',  ( 3.491481338843133355E-15, -1.224646799147352961E-16, 1.000000000000000000 ) ) ;
#131 = DIRECTION ( 'NONE',  ( -3.491481338843133355E-15, 1.224646799147352961E-16, -1.000000000000000000 ) ) ;
#132 = FACE_OUTER_BOUND ( 'NONE', #2, .T. ) ;
#133 = DIRECTION ( 'NONE',  ( 4.275831445896957731E-31, 1.000000000000000000, 1.224646799147353207E-16 ) ) ;
#134 = ORIENTED_EDGE ( 'NONE', *, *, #205, .T. ) ;
#135 = PERSON_AND_ORGANIZATION ( #69, #199 ) ;
#136 = EDGE_CURVE ( 'NONE', #10, #10, #248, .T. ) ;
#137 = PERSON_AND_ORGANIZATION ( #69, #199 ) ;
#138 = AXIS2_PLACEMENT_3D ( 'NONE', #190, #67, #157 ) ;
#139 = PERSON_AND_ORGANIZATION_ROLE ( 'creator' ) ;
#140 = DATE_AND_TIME ( #265, #172 ) ;
#141 = EDGE_LOOP ( 'NONE', ( #77 ) ) ;
#142 = PERSON_AND_ORGANIZATION_ROLE ( 'design_supplier' ) ;
#143 = DIRECTION ( 'NONE',  ( -3.491481338843133355E-15, 1.224646799147352961E-16, -1.000000000000000000 ) ) ;
#144 = CIRCLE ( 'NONE', #192, 0.6703844939755806420 ) ;
#145 = FACE_BOUND ( 'NONE', #170, .T. ) ;
#146 = MANIFOLD_SOLID_BREP ( 'Corps-Déplacer/Copier1[2]', #272 ) ;
#147 = DIRECTION ( 'NONE',  ( 0.0000000000000000000, 1.000000000000000000, 0.0000000000000000000 ) ) ;
#148 = PRODUCT_DEFINITION ( 'UNKNOWN', '', #184, #152 ) ;
#149 = FACE_OUTER_BOUND ( 'NONE', #40, .T. ) ;
#150 = AXIS2_PLACEMENT_3D ( 'NONE', #62, #204, #301 ) ;
#151 = DIRECTION ( 'NONE',  ( -4.275831445896957731E-31, -1.000000000000000000, -1.224646799147352961E-16 ) ) ;
#152 = DESIGN_CONTEXT ( 'detailed design', #8, 'design' ) ;
#153 = AXIS2_PLACEMENT_3D ( 'NONE', #15, #196, #154 ) ;
#154 = DIRECTION ( 'NONE',  ( 4.275831445896957731E-31, 1.000000000000000000, 1.224646799147352714E-16 ) ) ;
#155 = ADVANCED_FACE ( 'NONE', ( #132, #91 ), #221, .T. ) ;
#156 = VERTEX_POINT ( 'NONE', #250 ) ;
#157 = DIRECTION ( 'NONE',  ( 0.0000000000000000000, 1.000000000000000000, 0.0000000000000000000 ) ) ;
#158 = CLOSED_SHELL ( 'NONE', ( #197, #52, #155, #245, #41, #208, #85, #293 ) ) ;
#159 = CONICAL_SURFACE ( 'NONE', #262, 0.7234999999999993658, 0.5235987755982925984 ) ;
#160 = ORIENTED_EDGE ( 'NONE', *, *, #179, .T. ) ;
#161 = COORDINATED_UNIVERSAL_TIME_OFFSET ( 1, 0, .AHEAD. ) ;
#162 = ORIENTED_EDGE ( 'NONE', *, *, #5, .F. ) ;
#163 = MECHANICAL_CONTEXT ( 'NONE', #276, 'mechanical' ) ;
#164 = DIRECTION ( 'NONE',  ( -3.491481338843133355E-15, 1.224646799147352961E-16, -1.000000000000000000 ) ) ;
#165 = ORIENTED_EDGE ( 'NONE', *, *, #252, .F. ) ;
#166 = APPLICATION_PROTOCOL_DEFINITION ( 'international standard', 'config_control_design', 1994, #8 ) ;
#167 = VERTEX_POINT ( 'NONE', #181 ) ;
#168 = PERSON_AND_ORGANIZATION ( #69, #199 ) ;
#169 = APPROVAL_DATE_TIME ( #66, #285 ) ;
#170 = EDGE_LOOP ( 'NONE', ( #269 ) ) ;
#171 = EDGE_LOOP ( 'NONE', ( #257 ) ) ;
#172 = LOCAL_TIME ( 15, 58, 46.00000000000000000, #266 ) ;
#173 = CC_DESIGN_DATE_AND_TIME_ASSIGNMENT ( #44, #68, ( #148 ) ) ;
#174 = EDGE_LOOP ( 'NONE', ( #231 ) ) ;
#175 = CARTESIAN_POINT ( 'NONE',  ( 2.444036937190193349E-14, 5.425381013779256267E-33, 7.000000000000000000 ) ) ;
#176 = FACE_OUTER_BOUND ( 'NONE', #118, .T. ) ;
#177 = CIRCLE ( 'NONE', #212, 1.200000000000003286 ) ;
#178 = CC_DESIGN_APPROVAL ( #277, ( #19 ) ) ;
#179 = EDGE_CURVE ( 'NONE', #90, #90, #278, .T. ) ;
#180 = CARTESIAN_POINT ( 'NONE',  ( 1.326762908760390423E-13, 1.199999999999998845, 38.00000000000000000 ) ) ;
#181 = CARTESIAN_POINT ( 'NONE',  ( 7.001216034561318911E-14, 1.499999999999995559, 20.05227969192325688 ) ) ;
#182 =( NAMED_UNIT ( * ) SI_UNIT ( $, .STERADIAN. ) SOLID_ANGLE_UNIT ( ) );
#183 = CARTESIAN_POINT ( 'NONE',  ( 0.0000000000000000000, 0.0000000000000000000, 0.0000000000000000000 ) ) ;
#184 = PRODUCT_DEFINITION_FORMATION_WITH_SPECIFIED_SOURCE ( 'ANY', '', #201, .NOT_KNOWN. ) ;
#185 = ORIENTED_EDGE ( 'NONE', *, *, #187, .F. ) ;
#186 = COORDINATED_UNIVERSAL_TIME_OFFSET ( 1, 0, .AHEAD. ) ;
#187 = EDGE_CURVE ( 'NONE', #167, #167, #106, .T. ) ;
#188 = CARTESIAN_POINT ( 'NONE',  ( 8.728703347107831416E-16, -3.061616997868381785E-17, 0.2499999999999999445 ) ) ;
#189 = DATE_TIME_ROLE ( 'classification_date' ) ;
#190 = CARTESIAN_POINT ( 'NONE',  ( 2.444036937190193349E-14, -8.572527594031471218E-16, 7.000000000000000000 ) ) ;
#191 = APPROVAL_STATUS ( 'not_yet_approved' ) ;
#192 = AXIS2_PLACEMENT_3D ( 'NONE', #89, #131, #224 ) ;
#193 = ORIENTED_EDGE ( 'NONE', *, *, #5, .T. ) ;
#194 = DIRECTION ( 'NONE',  ( 0.0000000000000000000, 0.0000000000000000000, 1.000000000000000000 ) ) ;
#195 = FACE_BOUND ( 'NONE', #241, .T. ) ;
#196 = DIRECTION ( 'NONE',  ( -3.491481338843133355E-15, 1.224646799147352961E-16, -1.000000000000000000 ) ) ;
#197 = ADVANCED_FACE ( 'NONE', ( #247 ), #206, .F. ) ;
#198 = DIRECTION ( 'NONE',  ( 0.0000000000000000000, 1.000000000000000000, 0.0000000000000000000 ) ) ;
#199 = ORGANIZATION ( 'UNSPECIFIED', 'UNSPECIFIED', '' ) ;
#200 = DIRECTION ( 'NONE',  ( 3.491481338843133355E-15, -1.224646799147352961E-16, 1.000000000000000000 ) ) ;
#201 = PRODUCT ( '961345', '961345', '', ( #163 ) ) ;
#202 = FACE_BOUND ( 'NONE', #141, .T. ) ;
#203 =( GEOMETRIC_REPRESENTATION_CONTEXT ( 3 ) GLOBAL_UNCERTAINTY_ASSIGNED_CONTEXT ( ( #300 ) ) GLOBAL_UNIT_ASSIGNED_CONTEXT ( ( #16, #78, #182 ) ) REPRESENTATION_CONTEXT ( 'NONE', 'WORKASPACE' ) );
#204 = DIRECTION ( 'NONE',  ( 3.491481338843133355E-15, -1.224646799147352961E-16, 1.000000000000000000 ) ) ;
#205 = EDGE_CURVE ( 'NONE', #261, #261, #144, .T. ) ;
#206 = PLANE ( 'NONE',  #150 ) ;
#207 = DIRECTION ( 'NONE',  ( -3.491481338843133355E-15, 1.224646799147352961E-16, -1.000000000000000000 ) ) ;
#208 = ADVANCED_FACE ( 'NONE', ( #23, #7 ), #303, .T. ) ;
#209 = APPROVAL_STATUS ( 'not_yet_approved' ) ;
#210 = DIRECTION ( 'NONE',  ( -3.491481338843133355E-15, 1.224646799147352961E-16, -1.000000000000000000 ) ) ;
#211 = CONICAL_SURFACE ( 'NONE', #79, 0.6399999999999993472, 0.5235987755982943748 ) ;
#212 = AXIS2_PLACEMENT_3D ( 'NONE', #35, #76, #267 ) ;
#213 = CARTESIAN_POINT ( 'NONE',  ( 1.316288464743861212E-13, 1.499999999999998668, 37.69999999999999574 ) ) ;
#214 = PERSON_AND_ORGANIZATION ( #69, #199 ) ;
#215 = CC_DESIGN_APPROVAL ( #285, ( #148 ) ) ;
#216 = CARTESIAN_POINT ( 'NONE',  ( 0.0000000000000000000, 0.0000000000000000000, 0.0000000000000000000 ) ) ;
#217 = DIRECTION ( 'NONE',  ( 0.0000000000000000000, -1.000000000000000000, 0.0000000000000000000 ) ) ;
#218 = FACE_OUTER_BOUND ( 'NONE', #290, .T. ) ;
#219 = EDGE_LOOP ( 'NONE', ( #50 ) ) ;
#220 = CARTESIAN_POINT ( 'NONE',  ( 1.326762908760390423E-13, -4.653657836759941152E-15, 38.00000000000000000 ) ) ;
#221 = CYLINDRICAL_SURFACE ( 'NONE', #274, 0.6399999999999996803 ) ;
#222 = CIRCLE ( 'NONE', #33, 1.500000000000003331 ) ;
#223 = CC_DESIGN_SECURITY_CLASSIFICATION ( #19, ( #184 ) ) ;
#224 = DIRECTION ( 'NONE',  ( 0.0000000000000000000, 1.000000000000000000, 0.0000000000000000000 ) ) ;
#225 = AXIS2_PLACEMENT_3D ( 'NONE', #119, #283, #37 ) ;
#226 = VERTEX_POINT ( 'NONE', #25 ) ;
#227 = DIRECTION ( 'NONE',  ( -3.491481338843133355E-15, 1.224646799147352961E-16, -1.000000000000000000 ) ) ;
#228 = ORIENTED_EDGE ( 'NONE', *, *, #205, .F. ) ;
#229 = DATE_AND_TIME ( #51, #113 ) ;
#230 = DIRECTION ( 'NONE',  ( 4.275831445896957731E-31, 1.000000000000000000, 1.224646799147352961E-16 ) ) ;
#231 = ORIENTED_EDGE ( 'NONE', *, *, #232, .T. ) ;
#232 = EDGE_CURVE ( 'NONE', #239, #239, #116, .T. ) ;
#233 = DIRECTION ( 'NONE',  ( -3.491481338843133355E-15, 1.224646799147352961E-16, -1.000000000000000000 ) ) ;
#234 = ORIENTED_EDGE ( 'NONE', *, *, #136, .T. ) ;
#235 = APPROVAL_DATE_TIME ( #140, #277 ) ;
#236 = CC_DESIGN_PERSON_AND_ORGANIZATION_ASSIGNMENT ( #260, #9, ( #19 ) ) ;
#237 = CARTESIAN_POINT ( 'NONE',  ( 0.0000000000000000000, 0.0000000000000000000, 0.0000000000000000000 ) ) ;
#238 = EDGE_LOOP ( 'NONE', ( #254 ) ) ;
#239 = VERTEX_POINT ( 'NONE', #279 ) ;
#240 = EDGE_CURVE ( 'NONE', #156, #156, #295, .T. ) ;
#241 = EDGE_LOOP ( 'NONE', ( #228 ) ) ;
#242 = DIRECTION ( 'NONE',  ( -4.275831445896957731E-31, -1.000000000000000000, -1.224646799147352961E-16 ) ) ;
#243 = ORIENTED_EDGE ( 'NONE', *, *, #232, .F. ) ;
#244 = AXIS2_PLACEMENT_3D ( 'NONE', #183, #210, #133 ) ;
#245 = ADVANCED_FACE ( 'NONE', ( #48, #28 ), #302, .F. ) ;
#246 = DIRECTION ( 'NONE',  ( -3.491481338843133355E-15, 1.224646799147352961E-16, -1.000000000000000000 ) ) ;
#247 = FACE_OUTER_BOUND ( 'NONE', #171, .T. ) ;
#248 = CIRCLE ( 'NONE', #153, 0.5791624327025949315 ) ;
#249 = MANIFOLD_SOLID_BREP ( 'Corps-Déplacer/Copier1[1]', #158 ) ;
#250 = CARTESIAN_POINT ( 'NONE',  ( 2.494532919846027797E-14, 0.6399999999999984590, 7.144626242432004837 ) ) ;
#251 = LOCAL_TIME ( 15, 58, 46.00000000000000000, #100 ) ;
#252 = EDGE_CURVE ( 'NONE', #226, #226, #29, .T. ) ;
#253 = CARTESIAN_POINT ( 'NONE',  ( 2.444036937190193349E-14, 0.7234999999999993658, 7.000000000000000000 ) ) ;
#254 = ORIENTED_EDGE ( 'NONE', *, *, #114, .F. ) ;
#255 = SECURITY_CLASSIFICATION_LEVEL ( 'unclassified' ) ;
#256 = CARTESIAN_POINT ( 'NONE',  ( 5.237222008264700033E-14, -1.836970198721029194E-15, 15.00000000000000000 ) ) ;
#257 = ORIENTED_EDGE ( 'NONE', *, *, #114, .T. ) ;
#258 = CALENDAR_DATE ( 2021, 29, 11 ) ;
#259 = APPROVAL ( #191, 'UNSPECIFIED' ) ;
#260 = PERSON_AND_ORGANIZATION ( #69, #199 ) ;
#261 = VERTEX_POINT ( 'NONE', #54 ) ;
#262 = AXIS2_PLACEMENT_3D ( 'NONE', #298, #128, #59 ) ;
#263 = DIRECTION ( 'NONE',  ( 5.323925209087042365E-31, 1.000000000000000000, 1.498551724237049625E-16 ) ) ;
#264 = EDGE_LOOP ( 'NONE', ( #12 ) ) ;
#265 = CALENDAR_DATE ( 2021, 29, 11 ) ;
#266 = COORDINATED_UNIVERSAL_TIME_OFFSET ( 1, 0, .AHEAD. ) ;
#267 = DIRECTION ( 'NONE',  ( 0.0000000000000000000, 1.000000000000000000, 0.0000000000000000000 ) ) ;
#268 = APPROVAL_PERSON_ORGANIZATION ( #281, #285, #75 ) ;
#269 = ORIENTED_EDGE ( 'NONE', *, *, #240, .T. ) ;
#270 = FACE_OUTER_BOUND ( 'NONE', #174, .T. ) ;
#271 = DIRECTION ( 'NONE',  ( -3.491481338843133355E-15, 1.224646799147352961E-16, -1.000000000000000000 ) ) ;
#272 = CLOSED_SHELL ( 'NONE', ( #87, #56, #109, #81 ) ) ;
#273 = FACE_OUTER_BOUND ( 'NONE', #27, .T. ) ;
#274 = AXIS2_PLACEMENT_3D ( 'NONE', #88, #280, #97 ) ;
#275 = DIRECTION ( 'NONE',  ( 0.0000000000000000000, 1.000000000000000000, 0.0000000000000000000 ) ) ;
#276 = APPLICATION_CONTEXT ( 'configuration controlled 3d designs of mechanical parts and assemblies' ) ;
#277 = APPROVAL ( #72, 'UNSPECIFIED' ) ;
#278 = CIRCLE ( 'NONE', #24, 0.7234999999999993658 ) ;
#279 = CARTESIAN_POINT ( 'NONE',  ( 2.444036937190193349E-14, 0.7234999999999993658, 7.000000000000000000 ) ) ;
#280 = DIRECTION ( 'NONE',  ( -3.491481338843133355E-15, 1.224646799147352961E-16, -1.000000000000000000 ) ) ;
#281 = PERSON_AND_ORGANIZATION ( #69, #199 ) ;
#282 = APPROVAL_PERSON_ORGANIZATION ( #135, #277, #3 ) ;
#283 = DIRECTION ( 'NONE',  ( -3.491481338843133355E-15, 1.224646799147352961E-16, -1.000000000000000000 ) ) ;
#284 = PERSON_AND_ORGANIZATION_ROLE ( 'design_owner' ) ;
#285 = APPROVAL ( #209, 'UNSPECIFIED' ) ;
#286 = EDGE_LOOP ( 'NONE', ( #185 ) ) ;
#287 = CARTESIAN_POINT ( 'NONE',  ( -1.892735826383160481E-31, 0.5791624327025949315, -5.421010862427520937E-17 ) ) ;
#288 = DATE_AND_TIME ( #49, #34 ) ;
#289 = AXIS2_PLACEMENT_3D ( 'NONE', #82, #200, #151 ) ;
#290 = EDGE_LOOP ( 'NONE', ( #243 ) ) ;
#291 = CALENDAR_DATE ( 2021, 29, 11 ) ;
#292 = CARTESIAN_POINT ( 'NONE',  ( 2.444036937190193349E-14, -8.572527594031471218E-16, 7.000000000000000000 ) ) ;
#293 = ADVANCED_FACE ( 'NONE', ( #117 ), #63, .F. ) ;
#294 = ORIENTED_EDGE ( 'NONE', *, *, #252, .T. ) ;
#295 = CIRCLE ( 'NONE', #60, 0.6399999999999993472 ) ;
#296 = DIRECTION ( 'NONE',  ( 0.0000000000000000000, 1.000000000000000000, 0.0000000000000000000 ) ) ;
#297 = DIRECTION ( 'NONE',  ( 4.275831445896957731E-31, 1.000000000000000000, 1.224646799147352961E-16 ) ) ;
#298 = CARTESIAN_POINT ( 'NONE',  ( 8.728703347107831416E-16, -3.061616997868381785E-17, 0.2499999999999999445 ) ) ;
#299 = CC_DESIGN_APPROVAL ( #259, ( #184 ) ) ;
#300 = UNCERTAINTY_MEASURE_WITH_UNIT (LENGTH_MEASURE( 1.000000000000000082E-05 ), #16, 'distance_accuracy_value', 'NONE');
#301 = DIRECTION ( 'NONE',  ( -4.275831445896957731E-31, -1.000000000000000000, -1.224646799147352961E-16 ) ) ;
#302 = TOROIDAL_SURFACE ( 'NONE', #225, 2.640000000000000124, 2.000000000000000444 ) ;
#303 = CYLINDRICAL_SURFACE ( 'NONE', #244, 1.500000000000000444 ) ;
ENDSEC;
END-ISO-10303-21;
