ISO-10303-21;
HEADER;
FILE_DESCRIPTION (( 'STEP AP203' ),
    '1' );
FILE_NAME ('961343.step',
    '2021-11-25T13:53:18',
    ( '' ),
    ( '' ),
    'SwSTEP 2.0',
    'SolidWorks 2019',
    '' );
FILE_SCHEMA (( 'CONFIG_CONTROL_DESIGN' ));
ENDSEC;

DATA;
#1 = EDGE_CURVE ( 'NONE', #159, #159, #48, .T. ) ;
#2 = EDGE_LOOP ( 'NONE', ( #4 ) ) ;
#3 = AXIS2_PLACEMENT_3D ( 'NONE', #14, #75, #165 ) ;
#4 = ORIENTED_EDGE ( 'NONE', *, *, #130, .F. ) ;
#5 = EDGE_LOOP ( 'NONE', ( #127 ) ) ;
#6 = CARTESIAN_POINT ( 'NONE',  ( 1.824254005033808843E-14, -6.398621706042481381E-16, 5.224871130596553392 ) ) ;
#7 = CC_DESIGN_APPROVAL ( #22, ( #12 ) ) ;
#8 = VERTEX_POINT ( 'NONE', #73 ) ;
#9 = FACE_OUTER_BOUND ( 'NONE', #82, .T. ) ;
#10 = PLANE ( 'NONE',  #3 ) ;
#11 = CONICAL_SURFACE ( 'NONE', #94, 1.499999999999996225, 0.2617993877991428020 ) ;
#12 = PRODUCT_DEFINITION_FORMATION_WITH_SPECIFIED_SOURCE ( 'ANY', '', #58, .NOT_KNOWN. ) ;
#13 = ADVANCED_FACE ( 'NONE', ( #9 ), #10, .F. ) ;
#14 = CARTESIAN_POINT ( 'NONE',  ( 1.824254005033808843E-14, 1.124819836996389511E-32, 5.224871130596553392 ) ) ;
#15 = DATE_AND_TIME ( #140, #44 ) ;
#16 = APPROVAL_DATE_TIME ( #92, #74 ) ;
#17 = PRODUCT_DEFINITION ( 'UNKNOWN', '', #12, #157 ) ;
#18 = PERSON_AND_ORGANIZATION ( #93, #152 ) ;
#19 = CONICAL_SURFACE ( 'NONE', #68, 1.200000000000000178, 0.7853981633974457255 ) ;
#20 =( LENGTH_UNIT ( ) NAMED_UNIT ( * ) SI_UNIT ( .MILLI., .METRE. ) );
#21 = LOCAL_TIME ( 14, 53, 18.00000000000000000, #30 ) ;
#22 = APPROVAL ( #80, 'UNSPECIFIED' ) ;
#23 = DIRECTION ( 'NONE',  ( -3.491481338843133355E-15, 1.224646799147353207E-16, -1.000000000000000000 ) ) ;
#24 = CARTESIAN_POINT ( 'NONE',  ( 1.326762908760390423E-13, 8.998558695971078593E-33, 38.00000000000000000 ) ) ;
#25 = AXIS2_PLACEMENT_3D ( 'NONE', #55, #133, #103 ) ;
#26 = DIRECTION ( 'NONE',  ( 0.0000000000000000000, -1.000000000000000000, 0.0000000000000000000 ) ) ;
#27 = FACE_OUTER_BOUND ( 'NONE', #49, .T. ) ;
#28 = DIRECTION ( 'NONE',  ( 0.0000000000000000000, 1.000000000000000000, 0.0000000000000000000 ) ) ;
#29 = COORDINATED_UNIVERSAL_TIME_OFFSET ( 1, 0, .AHEAD. ) ;
#30 = COORDINATED_UNIVERSAL_TIME_OFFSET ( 1, 0, .AHEAD. ) ;
#31 = CARTESIAN_POINT ( 'NONE',  ( 0.0000000000000000000, 0.0000000000000000000, 0.0000000000000000000 ) ) ;
#32 = PERSON_AND_ORGANIZATION ( #93, #152 ) ;
#33 = CIRCLE ( 'NONE', #62, 1.499999999999996225 ) ;
#34 = LOCAL_TIME ( 14, 53, 18.00000000000000000, #200 ) ;
#35 = DIRECTION ( 'NONE',  ( -4.275831445896958607E-31, -1.000000000000000000, -1.224646799147353207E-16 ) ) ;
#36 = ADVANCED_BREP_SHAPE_REPRESENTATION ( '961343', ( #189, #186, #98 ), #107 ) ;
#37 = CARTESIAN_POINT ( 'NONE',  ( 0.0000000000000000000, 0.0000000000000000000, 0.0000000000000000000 ) ) ;
#38 = DIRECTION ( 'NONE',  ( 3.491481338843133355E-15, -1.224646799147353207E-16, 1.000000000000000000 ) ) ;
#39 = APPROVAL_PERSON_ORGANIZATION ( #108, #74, #187 ) ;
#40 = DIRECTION ( 'NONE',  ( 0.0000000000000000000, 1.000000000000000000, 0.0000000000000000000 ) ) ;
#41 = DIRECTION ( 'NONE',  ( -3.491481338843133355E-15, 1.224646799147353207E-16, -1.000000000000000000 ) ) ;
#42 = PERSON_AND_ORGANIZATION ( #93, #152 ) ;
#43 = PRODUCT_DEFINITION_SHAPE ( 'NONE', 'NONE',  #17 ) ;
#44 = LOCAL_TIME ( 14, 53, 18.00000000000000000, #29 ) ;
#45 =( NAMED_UNIT ( * ) PLANE_ANGLE_UNIT ( ) SI_UNIT ( $, .RADIAN. ) );
#46 = PERSON_AND_ORGANIZATION_ROLE ( 'creator' ) ;
#47 = SECURITY_CLASSIFICATION_LEVEL ( 'unclassified' ) ;
#48 = CIRCLE ( 'NONE', #126, 1.200000000000000178 ) ;
#49 = EDGE_LOOP ( 'NONE', ( #173 ) ) ;
#50 = AXIS2_PLACEMENT_3D ( 'NONE', #182, #38, #35 ) ;
#51 = ORIENTED_EDGE ( 'NONE', *, *, #168, .F. ) ;
#52 = CARTESIAN_POINT ( 'NONE',  ( 1.326762908760390423E-13, -4.653657836759941941E-15, 38.00000000000000000 ) ) ;
#53 = ADVANCED_FACE ( 'NONE', ( #114 ), #101, .F. ) ;
#54 = CARTESIAN_POINT ( 'NONE',  ( 1.824254005033808843E-14, -6.398621706042481381E-16, 5.224871130596553392 ) ) ;
#55 = CARTESIAN_POINT ( 'NONE',  ( 1.824254005033808843E-14, 1.124819836996389511E-32, 5.224871130596553392 ) ) ;
#56 = PRODUCT_RELATED_PRODUCT_CATEGORY ( 'detail', '', ( #58 ) ) ;
#57 = DIRECTION ( 'NONE',  ( -3.491481338843133355E-15, 1.224646799147353207E-16, -1.000000000000000000 ) ) ;
#58 = PRODUCT ( '961343', '961343', '', ( #153 ) ) ;
#59 = DATE_AND_TIME ( #138, #21 ) ;
#60 = EDGE_CURVE ( 'NONE', #71, #71, #118, .T. ) ;
#61 = APPLICATION_PROTOCOL_DEFINITION ( 'international standard', 'config_control_design', 1994, #139 ) ;
#62 = AXIS2_PLACEMENT_3D ( 'NONE', #54, #41, #196 ) ;
#63 = APPLICATION_PROTOCOL_DEFINITION ( 'international standard', 'config_control_design', 1994, #124 ) ;
#64 = APPROVAL_PERSON_ORGANIZATION ( #203, #22, #155 ) ;
#65 = UNCERTAINTY_MEASURE_WITH_UNIT (LENGTH_MEASURE( 1.000000000000000082E-05 ), #20, 'distance_accuracy_value', 'NONE');
#66 = EDGE_LOOP ( 'NONE', ( #174 ) ) ;
#67 = CIRCLE ( 'NONE', #161, 1.500000000000000222 ) ;
#68 = AXIS2_PLACEMENT_3D ( 'NONE', #150, #57, #28 ) ;
#69 = ORIENTED_EDGE ( 'NONE', *, *, #60, .T. ) ;
#70 = ORIENTED_EDGE ( 'NONE', *, *, #1, .F. ) ;
#71 = VERTEX_POINT ( 'NONE', #160 ) ;
#72 = LOCAL_TIME ( 14, 53, 18.00000000000000000, #119 ) ;
#73 = CARTESIAN_POINT ( 'NONE',  ( 1.824254005033808843E-14, 1.499999999999995559, 5.224871130596553392 ) ) ;
#74 = APPROVAL ( #96, 'UNSPECIFIED' ) ;
#75 = DIRECTION ( 'NONE',  ( 3.491481338843133355E-15, -1.224646799147353207E-16, 1.000000000000000000 ) ) ;
#76 = DIRECTION ( 'NONE',  ( 0.0000000000000000000, 1.000000000000000000, 0.0000000000000000000 ) ) ;
#77 = AXIS2_PLACEMENT_3D ( 'NONE', #87, #148, #40 ) ;
#78 = PERSON_AND_ORGANIZATION_ROLE ( 'classification_officer' ) ;
#79 = PERSON_AND_ORGANIZATION_ROLE ( 'creator' ) ;
#80 = APPROVAL_STATUS ( 'not_yet_approved' ) ;
#81 = EDGE_LOOP ( 'NONE', ( #144 ) ) ;
#82 = EDGE_LOOP ( 'NONE', ( #69 ) ) ;
#83 = FACE_OUTER_BOUND ( 'NONE', #2, .T. ) ;
#84 = VERTEX_POINT ( 'NONE', #147 ) ;
#85 = CLOSED_SHELL ( 'NONE', ( #13, #175, #146, #97 ) ) ;
#86 = SECURITY_CLASSIFICATION ( '', '', #47 ) ;
#87 = CARTESIAN_POINT ( 'NONE',  ( 1.824254005033808843E-14, -6.398621706042481381E-16, 5.224871130596553392 ) ) ;
#88 = FACE_BOUND ( 'NONE', #5, .T. ) ;
#89 = DIRECTION ( 'NONE',  ( -3.491481338843133355E-15, 1.224646799147353207E-16, -1.000000000000000000 ) ) ;
#90 = EDGE_CURVE ( 'NONE', #84, #84, #67, .T. ) ;
#91 = DATE_TIME_ROLE ( 'classification_date' ) ;
#92 = DATE_AND_TIME ( #169, #176 ) ;
#93 = PERSON ( 'UNSPECIFIED', 'UNSPECIFIED', 'UNSPECIFIED', ('UNSPECIFIED'), ('UNSPECIFIED'), ('UNSPECIFIED') ) ;
#94 = AXIS2_PLACEMENT_3D ( 'NONE', #6, #163, #26 ) ;
#95 = PERSON_AND_ORGANIZATION_ROLE ( 'design_supplier' ) ;
#96 = APPROVAL_STATUS ( 'not_yet_approved' ) ;
#97 = ADVANCED_FACE ( 'NONE', ( #194 ), #132, .F. ) ;
#98 = AXIS2_PLACEMENT_3D ( 'NONE', #31, #117, #184 ) ;
#99 = DIRECTION ( 'NONE',  ( -3.491481338843133355E-15, 1.224646799147353207E-16, -1.000000000000000000 ) ) ;
#100 = CARTESIAN_POINT ( 'NONE',  ( 1.326762908760390423E-13, 1.199999999999995515, 38.00000000000000000 ) ) ;
#101 = PLANE ( 'NONE',  #50 ) ;
#102 = CIRCLE ( 'NONE', #121, 0.09999999999999982514 ) ;
#103 = DIRECTION ( 'NONE',  ( -4.275831445896958607E-31, -1.000000000000000000, -1.224646799147353207E-16 ) ) ;
#104 = FACE_BOUND ( 'NONE', #123, .T. ) ;
#105 = CC_DESIGN_PERSON_AND_ORGANIZATION_ASSIGNMENT ( #172, #170, ( #58 ) ) ;
#106 = COORDINATED_UNIVERSAL_TIME_OFFSET ( 1, 0, .AHEAD. ) ;
#107 =( GEOMETRIC_REPRESENTATION_CONTEXT ( 3 ) GLOBAL_UNCERTAINTY_ASSIGNED_CONTEXT ( ( #65 ) ) GLOBAL_UNIT_ASSIGNED_CONTEXT ( ( #20, #45, #111 ) ) REPRESENTATION_CONTEXT ( 'NONE', 'WORKASPACE' ) );
#108 = PERSON_AND_ORGANIZATION ( #93, #152 ) ;
#109 = APPROVAL ( #120, 'UNSPECIFIED' ) ;
#110 = APPROVAL_DATE_TIME ( #137, #109 ) ;
#111 =( NAMED_UNIT ( * ) SI_UNIT ( $, .STERADIAN. ) SOLID_ANGLE_UNIT ( ) );
#112 = CARTESIAN_POINT ( 'NONE',  ( -1.909911662917999631E-32, 6.699068325599929685E-34, -5.470204413439109175E-18 ) ) ;
#113 = FACE_OUTER_BOUND ( 'NONE', #66, .T. ) ;
#114 = FACE_OUTER_BOUND ( 'NONE', #191, .T. ) ;
#115 = APPROVAL_PERSON_ORGANIZATION ( #154, #109, #136 ) ;
#116 = DIRECTION ( 'NONE',  ( -3.491481338843133355E-15, 1.224646799147353207E-16, -1.000000000000000000 ) ) ;
#117 = DIRECTION ( 'NONE',  ( 0.0000000000000000000, 0.0000000000000000000, 1.000000000000000000 ) ) ;
#118 = CIRCLE ( 'NONE', #77, 1.499999999999996225 ) ;
#119 = COORDINATED_UNIVERSAL_TIME_OFFSET ( 1, 0, .AHEAD. ) ;
#120 = APPROVAL_STATUS ( 'not_yet_approved' ) ;
#121 = AXIS2_PLACEMENT_3D ( 'NONE', #112, #89, #193 ) ;
#122 = ADVANCED_FACE ( 'NONE', ( #104, #198 ), #11, .T. ) ;
#123 = EDGE_LOOP ( 'NONE', ( #51 ) ) ;
#124 = APPLICATION_CONTEXT ( 'configuration controlled 3d designs of mechanical parts and assemblies' ) ;
#125 = CC_DESIGN_PERSON_AND_ORGANIZATION_ASSIGNMENT ( #135, #95, ( #12 ) ) ;
#126 = AXIS2_PLACEMENT_3D ( 'NONE', #52, #116, #129 ) ;
#127 = ORIENTED_EDGE ( 'NONE', *, *, #1, .T. ) ;
#128 = CARTESIAN_POINT ( 'NONE',  ( 1.316288464743861212E-13, -4.616918432785521081E-15, 37.69999999999999574 ) ) ;
#129 = DIRECTION ( 'NONE',  ( 0.0000000000000000000, 1.000000000000000000, 0.0000000000000000000 ) ) ;
#130 = EDGE_CURVE ( 'NONE', #8, #8, #33, .T. ) ;
#131 = VERTEX_POINT ( 'NONE', #195 ) ;
#132 = PLANE ( 'NONE',  #181 ) ;
#133 = DIRECTION ( 'NONE',  ( 3.491481338843133355E-15, -1.224646799147353207E-16, 1.000000000000000000 ) ) ;
#134 = CC_DESIGN_DATE_AND_TIME_ASSIGNMENT ( #59, #185, ( #17 ) ) ;
#135 = PERSON_AND_ORGANIZATION ( #93, #152 ) ;
#136 = APPROVAL_ROLE ( '' ) ;
#137 = DATE_AND_TIME ( #199, #34 ) ;
#138 = CALENDAR_DATE ( 2021, 25, 11 ) ;
#139 = APPLICATION_CONTEXT ( 'configuration controlled 3d designs of mechanical parts and assemblies' ) ;
#140 = CALENDAR_DATE ( 2021, 25, 11 ) ;
#141 = ADVANCED_FACE ( 'NONE', ( #83 ), #166, .T. ) ;
#142 = EDGE_LOOP ( 'NONE', ( #70 ) ) ;
#143 = ORIENTED_EDGE ( 'NONE', *, *, #130, .T. ) ;
#144 = ORIENTED_EDGE ( 'NONE', *, *, #90, .T. ) ;
#145 = DIRECTION ( 'NONE',  ( 4.275831445896958607E-31, 1.000000000000000000, 1.224646799147353207E-16 ) ) ;
#146 = ADVANCED_FACE ( 'NONE', ( #27, #88 ), #19, .T. ) ;
#147 = CARTESIAN_POINT ( 'NONE',  ( 1.316288464743861212E-13, 1.499999999999995781, 37.69999999999999574 ) ) ;
#148 = DIRECTION ( 'NONE',  ( -3.491481338843133355E-15, 1.224646799147353207E-16, -1.000000000000000000 ) ) ;
#149 = CC_DESIGN_DATE_AND_TIME_ASSIGNMENT ( #15, #91, ( #86 ) ) ;
#150 = CARTESIAN_POINT ( 'NONE',  ( 1.326762908760390423E-13, -4.653657836759941941E-15, 38.00000000000000000 ) ) ;
#151 = CC_DESIGN_APPROVAL ( #109, ( #17 ) ) ;
#152 = ORGANIZATION ( 'UNSPECIFIED', 'UNSPECIFIED', '' ) ;
#153 = MECHANICAL_CONTEXT ( 'NONE', #124, 'mechanical' ) ;
#154 = PERSON_AND_ORGANIZATION ( #93, #152 ) ;
#155 = APPROVAL_ROLE ( '' ) ;
#156 = EDGE_LOOP ( 'NONE', ( #143 ) ) ;
#157 = DESIGN_CONTEXT ( 'detailed design', #139, 'design' ) ;
#158 = CLOSED_SHELL ( 'NONE', ( #53, #122, #141 ) ) ;
#159 = VERTEX_POINT ( 'NONE', #100 ) ;
#160 = CARTESIAN_POINT ( 'NONE',  ( 1.824254005033808843E-14, 1.499999999999995559, 5.224871130596553392 ) ) ;
#161 = AXIS2_PLACEMENT_3D ( 'NONE', #128, #23, #76 ) ;
#162 = AXIS2_PLACEMENT_3D ( 'NONE', #37, #99, #145 ) ;
#163 = DIRECTION ( 'NONE',  ( 3.491481338843133355E-15, -1.224646799147353207E-16, 1.000000000000000000 ) ) ;
#164 = CC_DESIGN_PERSON_AND_ORGANIZATION_ASSIGNMENT ( #42, #46, ( #12 ) ) ;
#165 = DIRECTION ( 'NONE',  ( -4.275831445896958607E-31, -1.000000000000000000, -1.224646799147353207E-16 ) ) ;
#166 = PLANE ( 'NONE',  #25 ) ;
#167 = DATE_AND_TIME ( #171, #72 ) ;
#168 = EDGE_CURVE ( 'NONE', #131, #131, #102, .T. ) ;
#169 = CALENDAR_DATE ( 2021, 25, 11 ) ;
#170 = PERSON_AND_ORGANIZATION_ROLE ( 'design_owner' ) ;
#171 = CALENDAR_DATE ( 2021, 25, 11 ) ;
#172 = PERSON_AND_ORGANIZATION ( #93, #152 ) ;
#173 = ORIENTED_EDGE ( 'NONE', *, *, #90, .F. ) ;
#174 = ORIENTED_EDGE ( 'NONE', *, *, #60, .F. ) ;
#175 = ADVANCED_FACE ( 'NONE', ( #113, #177 ), #178, .T. ) ;
#176 = LOCAL_TIME ( 14, 53, 18.00000000000000000, #106 ) ;
#177 = FACE_OUTER_BOUND ( 'NONE', #81, .T. ) ;
#178 = CYLINDRICAL_SURFACE ( 'NONE', #162, 1.499999999999998224 ) ;
#179 = DIRECTION ( 'NONE',  ( -3.491481338843133355E-15, 1.224646799147353207E-16, -1.000000000000000000 ) ) ;
#180 = CC_DESIGN_PERSON_AND_ORGANIZATION_ASSIGNMENT ( #18, #79, ( #17 ) ) ;
#181 = AXIS2_PLACEMENT_3D ( 'NONE', #24, #179, #183 ) ;
#182 = CARTESIAN_POINT ( 'NONE',  ( -9.549558314589998154E-33, 3.349534162799964843E-34, -2.735102206719554588E-18 ) ) ;
#183 = DIRECTION ( 'NONE',  ( 4.275831445896958607E-31, 1.000000000000000000, 1.224646799147353207E-16 ) ) ;
#184 = DIRECTION ( 'NONE',  ( 1.000000000000000000, 0.0000000000000000000, 0.0000000000000000000 ) ) ;
#185 = DATE_TIME_ROLE ( 'creation_date' ) ;
#186 = MANIFOLD_SOLID_BREP ( 'Corps-Déplacer/Copier1[2]', #158 ) ;
#187 = APPROVAL_ROLE ( '' ) ;
#188 = CC_DESIGN_PERSON_AND_ORGANIZATION_ASSIGNMENT ( #32, #78, ( #86 ) ) ;
#189 = MANIFOLD_SOLID_BREP ( 'Corps-Déplacer/Copier1[1]', #85 ) ;
#190 = APPROVAL_DATE_TIME ( #167, #22 ) ;
#191 = EDGE_LOOP ( 'NONE', ( #192 ) ) ;
#192 = ORIENTED_EDGE ( 'NONE', *, *, #168, .T. ) ;
#193 = DIRECTION ( 'NONE',  ( 4.275831445896958607E-31, 1.000000000000000000, 1.224646799147353207E-16 ) ) ;
#194 = FACE_OUTER_BOUND ( 'NONE', #142, .T. ) ;
#195 = CARTESIAN_POINT ( 'NONE',  ( 2.365919782978951422E-32, 0.09999999999999982514, 6.776263578034402713E-18 ) ) ;
#196 = DIRECTION ( 'NONE',  ( 0.0000000000000000000, 1.000000000000000000, 0.0000000000000000000 ) ) ;
#197 = CC_DESIGN_APPROVAL ( #74, ( #86 ) ) ;
#198 = FACE_OUTER_BOUND ( 'NONE', #156, .T. ) ;
#199 = CALENDAR_DATE ( 2021, 25, 11 ) ;
#200 = COORDINATED_UNIVERSAL_TIME_OFFSET ( 1, 0, .AHEAD. ) ;
#201 = SHAPE_DEFINITION_REPRESENTATION ( #43, #36 ) ;
#202 = CC_DESIGN_SECURITY_CLASSIFICATION ( #86, ( #12 ) ) ;
#203 = PERSON_AND_ORGANIZATION ( #93, #152 ) ;
ENDSEC;
END-ISO-10303-21;
