ISO-10303-21;
HEADER;
FILE_DESCRIPTION (( 'STEP AP203' ),
    '1' );
FILE_NAME ('961342.step',
    '2021-11-25T13:53:17',
    ( '' ),
    ( '' ),
    'SwSTEP 2.0',
    'SolidWorks 2019',
    '' );
FILE_SCHEMA (( 'CONFIG_CONTROL_DESIGN' ));
ENDSEC;

DATA;
#1 = CC_DESIGN_SECURITY_CLASSIFICATION ( #40, ( #33 ) ) ;
#2 = CC_DESIGN_PERSON_AND_ORGANIZATION_ASSIGNMENT ( #85, #110, ( #77 ) ) ;
#3 = FACE_OUTER_BOUND ( 'NONE', #58, .T. ) ;
#4 = DIRECTION ( 'NONE',  ( 0.0000000000000000000, 1.000000000000000000, 0.0000000000000000000 ) ) ;
#5 = CARTESIAN_POINT ( 'NONE',  ( 1.316288464743861212E-13, -4.616918432785521081E-15, 37.69999999999999574 ) ) ;
#6 = DIRECTION ( 'NONE',  ( 0.0000000000000000000, 1.000000000000000000, 0.0000000000000000000 ) ) ;
#7 = LOCAL_TIME ( 14, 53, 17.00000000000000000, #83 ) ;
#8 = APPROVAL_ROLE ( '' ) ;
#9 = CC_DESIGN_PERSON_AND_ORGANIZATION_ASSIGNMENT ( #180, #130, ( #40 ) ) ;
#10 = LOCAL_TIME ( 14, 53, 17.00000000000000000, #141 ) ;
#11 = APPROVAL_STATUS ( 'not_yet_approved' ) ;
#12 = SECURITY_CLASSIFICATION_LEVEL ( 'unclassified' ) ;
#13 = CC_DESIGN_DATE_AND_TIME_ASSIGNMENT ( #161, #201, ( #40 ) ) ;
#14 = MANIFOLD_SOLID_BREP ( 'Corps-Déplacer/Copier1[2]', #82 ) ;
#15 = EDGE_LOOP ( 'NONE', ( #123 ) ) ;
#16 = APPROVAL_PERSON_ORGANIZATION ( #81, #18, #203 ) ;
#17 = EDGE_LOOP ( 'NONE', ( #187 ) ) ;
#18 = APPROVAL ( #165, 'UNSPECIFIED' ) ;
#19 = AXIS2_PLACEMENT_3D ( 'NONE', #65, #91, #36 ) ;
#20 = CIRCLE ( 'NONE', #72, 1.499999999999996225 ) ;
#21 = VERTEX_POINT ( 'NONE', #75 ) ;
#22 = CARTESIAN_POINT ( 'NONE',  ( 1.856829969409412347E-14, 1.124819836996389511E-32, 5.318172400785776688 ) ) ;
#23 = CARTESIAN_POINT ( 'NONE',  ( 1.856829969409412347E-14, -6.512882807936096433E-16, 5.318172400785776688 ) ) ;
#24 = CARTESIAN_POINT ( 'NONE',  ( -1.603436792211359587E-32, 5.624099184981966029E-34, -4.592425496802574373E-18 ) ) ;
#25 = FACE_OUTER_BOUND ( 'NONE', #15, .T. ) ;
#26 = APPROVAL_STATUS ( 'not_yet_approved' ) ;
#27 = AXIS2_PLACEMENT_3D ( 'NONE', #5, #176, #135 ) ;
#28 = ADVANCED_FACE ( 'NONE', ( #25 ), #136, .F. ) ;
#29 = PERSON_AND_ORGANIZATION_ROLE ( 'design_supplier' ) ;
#30 = PERSON_AND_ORGANIZATION_ROLE ( 'creator' ) ;
#31 = CIRCLE ( 'NONE', #127, 1.200000000000000178 ) ;
#32 = EDGE_LOOP ( 'NONE', ( #87 ) ) ;
#33 = PRODUCT_DEFINITION_FORMATION_WITH_SPECIFIED_SOURCE ( 'ANY', '', #202, .NOT_KNOWN. ) ;
#34 = DIRECTION ( 'NONE',  ( 4.275831445896958607E-31, 1.000000000000000000, 1.224646799147353207E-16 ) ) ;
#35 = CARTESIAN_POINT ( 'NONE',  ( 1.326762908760390423E-13, -4.653657836759941941E-15, 38.00000000000000000 ) ) ;
#36 = DIRECTION ( 'NONE',  ( 0.0000000000000000000, -1.000000000000000000, 0.0000000000000000000 ) ) ;
#37 = DIRECTION ( 'NONE',  ( 3.491481338843133355E-15, -1.224646799147353207E-16, 1.000000000000000000 ) ) ;
#38 = CARTESIAN_POINT ( 'NONE',  ( 1.856829969409412347E-14, 1.499999999999995559, 5.318172400785776688 ) ) ;
#39 = DATE_AND_TIME ( #182, #122 ) ;
#40 = SECURITY_CLASSIFICATION ( '', '', #12 ) ;
#41 = COORDINATED_UNIVERSAL_TIME_OFFSET ( 1, 0, .AHEAD. ) ;
#42 = CC_DESIGN_APPROVAL ( #18, ( #77 ) ) ;
#43 = UNCERTAINTY_MEASURE_WITH_UNIT (LENGTH_MEASURE( 1.000000000000000082E-05 ), #131, 'distance_accuracy_value', 'NONE');
#44 = CC_DESIGN_DATE_AND_TIME_ASSIGNMENT ( #39, #67, ( #77 ) ) ;
#45 = EDGE_LOOP ( 'NONE', ( #73 ) ) ;
#46 = EDGE_LOOP ( 'NONE', ( #152 ) ) ;
#47 = FACE_BOUND ( 'NONE', #32, .T. ) ;
#48 = DIRECTION ( 'NONE',  ( -4.275831445896958607E-31, -1.000000000000000000, -1.224646799147353207E-16 ) ) ;
#49 = FACE_OUTER_BOUND ( 'NONE', #89, .T. ) ;
#50 = CC_DESIGN_PERSON_AND_ORGANIZATION_ASSIGNMENT ( #53, #70, ( #202 ) ) ;
#51 = DIRECTION ( 'NONE',  ( 0.0000000000000000000, 1.000000000000000000, 0.0000000000000000000 ) ) ;
#52 = FACE_OUTER_BOUND ( 'NONE', #188, .T. ) ;
#53 = PERSON_AND_ORGANIZATION ( #144, #94 ) ;
#54 = APPROVAL_DATE_TIME ( #199, #56 ) ;
#55 = PERSON_AND_ORGANIZATION ( #144, #94 ) ;
#56 = APPROVAL ( #11, 'UNSPECIFIED' ) ;
#57 = LOCAL_TIME ( 14, 53, 17.00000000000000000, #118 ) ;
#58 = EDGE_LOOP ( 'NONE', ( #117 ) ) ;
#59 = SHAPE_DEFINITION_REPRESENTATION ( #79, #113 ) ;
#60 = AXIS2_PLACEMENT_3D ( 'NONE', #62, #76, #124 ) ;
#61 = DIRECTION ( 'NONE',  ( 3.491481338843133355E-15, -1.224646799147353207E-16, 1.000000000000000000 ) ) ;
#62 = CARTESIAN_POINT ( 'NONE',  ( -3.206873584422719174E-32, 1.124819836996393206E-33, -9.184850993605148746E-18 ) ) ;
#63 = PLANE ( 'NONE',  #69 ) ;
#64 = DIRECTION ( 'NONE',  ( -3.491481338843133355E-15, 1.224646799147353207E-16, -1.000000000000000000 ) ) ;
#65 = CARTESIAN_POINT ( 'NONE',  ( 1.856829969409412347E-14, -6.512882807936096433E-16, 5.318172400785776688 ) ) ;
#66 = EDGE_CURVE ( 'NONE', #137, #137, #197, .T. ) ;
#67 = DATE_TIME_ROLE ( 'creation_date' ) ;
#68 = PERSON_AND_ORGANIZATION ( #144, #94 ) ;
#69 = AXIS2_PLACEMENT_3D ( 'NONE', #22, #92, #126 ) ;
#70 = PERSON_AND_ORGANIZATION_ROLE ( 'design_owner' ) ;
#71 = MANIFOLD_SOLID_BREP ( 'Corps-Déplacer/Copier1[1]', #174 ) ;
#72 = AXIS2_PLACEMENT_3D ( 'NONE', #178, #157, #6 ) ;
#73 = ORIENTED_EDGE ( 'NONE', *, *, #66, .F. ) ;
#74 = ORIENTED_EDGE ( 'NONE', *, *, #167, .T. ) ;
#75 = CARTESIAN_POINT ( 'NONE',  ( 1.856829969409412347E-14, 1.499999999999995559, 5.318172400785776688 ) ) ;
#76 = DIRECTION ( 'NONE',  ( -3.491481338843133355E-15, 1.224646799147353207E-16, -1.000000000000000000 ) ) ;
#77 = PRODUCT_DEFINITION ( 'UNKNOWN', '', #33, #133 ) ;
#78 = FACE_OUTER_BOUND ( 'NONE', #149, .T. ) ;
#79 = PRODUCT_DEFINITION_SHAPE ( 'NONE', 'NONE',  #77 ) ;
#80 = FACE_OUTER_BOUND ( 'NONE', #17, .T. ) ;
#81 = PERSON_AND_ORGANIZATION ( #144, #94 ) ;
#82 = CLOSED_SHELL ( 'NONE', ( #120, #146, #154 ) ) ;
#83 = COORDINATED_UNIVERSAL_TIME_OFFSET ( 1, 0, .AHEAD. ) ;
#84 = ADVANCED_FACE ( 'NONE', ( #173, #47 ), #86, .T. ) ;
#85 = PERSON_AND_ORGANIZATION ( #144, #94 ) ;
#86 = CONICAL_SURFACE ( 'NONE', #163, 1.200000000000000178, 0.7853981633974457255 ) ;
#87 = ORIENTED_EDGE ( 'NONE', *, *, #138, .T. ) ;
#88 = APPROVAL_DATE_TIME ( #150, #142 ) ;
#89 = EDGE_LOOP ( 'NONE', ( #132 ) ) ;
#90 = CARTESIAN_POINT ( 'NONE',  ( 1.326762908760390423E-13, -4.653657836759941941E-15, 38.00000000000000000 ) ) ;
#91 = DIRECTION ( 'NONE',  ( 3.491481338843133355E-15, -1.224646799147353207E-16, 1.000000000000000000 ) ) ;
#92 = DIRECTION ( 'NONE',  ( 3.491481338843133355E-15, -1.224646799147353207E-16, 1.000000000000000000 ) ) ;
#93 = CC_DESIGN_APPROVAL ( #56, ( #33 ) ) ;
#94 = ORGANIZATION ( 'UNSPECIFIED', 'UNSPECIFIED', '' ) ;
#95 = DIRECTION ( 'NONE',  ( -3.491481338843133355E-15, 1.224646799147353207E-16, -1.000000000000000000 ) ) ;
#96 = VERTEX_POINT ( 'NONE', #160 ) ;
#97 = EDGE_CURVE ( 'NONE', #193, #193, #20, .T. ) ;
#98 = CALENDAR_DATE ( 2021, 25, 11 ) ;
#99 = APPLICATION_PROTOCOL_DEFINITION ( 'international standard', 'config_control_design', 1994, #175 ) ;
#100 = PERSON_AND_ORGANIZATION ( #144, #94 ) ;
#101 = APPROVAL_DATE_TIME ( #145, #18 ) ;
#102 =( GEOMETRIC_REPRESENTATION_CONTEXT ( 3 ) GLOBAL_UNCERTAINTY_ASSIGNED_CONTEXT ( ( #43 ) ) GLOBAL_UNIT_ASSIGNED_CONTEXT ( ( #131, #198, #166 ) ) REPRESENTATION_CONTEXT ( 'NONE', 'WORKASPACE' ) );
#103 = ORIENTED_EDGE ( 'NONE', *, *, #97, .T. ) ;
#104 = PLANE ( 'NONE',  #200 ) ;
#105 = CARTESIAN_POINT ( 'NONE',  ( 1.326762908760390423E-13, 8.998558695971078593E-33, 38.00000000000000000 ) ) ;
#106 = CARTESIAN_POINT ( 'NONE',  ( 0.0000000000000000000, 0.0000000000000000000, 0.0000000000000000000 ) ) ;
#107 = APPROVAL_PERSON_ORGANIZATION ( #68, #56, #8 ) ;
#108 = CARTESIAN_POINT ( 'NONE',  ( 1.856829969409412347E-14, 1.124819836996389511E-32, 5.318172400785776688 ) ) ;
#109 = CALENDAR_DATE ( 2021, 25, 11 ) ;
#110 = PERSON_AND_ORGANIZATION_ROLE ( 'creator' ) ;
#111 = MECHANICAL_CONTEXT ( 'NONE', #175, 'mechanical' ) ;
#112 = APPLICATION_PROTOCOL_DEFINITION ( 'international standard', 'config_control_design', 1994, #116 ) ;
#113 = ADVANCED_BREP_SHAPE_REPRESENTATION ( '961342', ( #71, #14, #186 ), #102 ) ;
#114 = AXIS2_PLACEMENT_3D ( 'NONE', #23, #172, #159 ) ;
#115 = CC_DESIGN_PERSON_AND_ORGANIZATION_ASSIGNMENT ( #164, #29, ( #33 ) ) ;
#116 = APPLICATION_CONTEXT ( 'configuration controlled 3d designs of mechanical parts and assemblies' ) ;
#117 = ORIENTED_EDGE ( 'NONE', *, *, #97, .F. ) ;
#118 = COORDINATED_UNIVERSAL_TIME_OFFSET ( 1, 0, .AHEAD. ) ;
#119 = ORIENTED_EDGE ( 'NONE', *, *, #66, .T. ) ;
#120 = ADVANCED_FACE ( 'NONE', ( #191 ), #121, .F. ) ;
#121 = PLANE ( 'NONE',  #179 ) ;
#122 = LOCAL_TIME ( 14, 53, 17.00000000000000000, #148 ) ;
#123 = ORIENTED_EDGE ( 'NONE', *, *, #181, .T. ) ;
#124 = DIRECTION ( 'NONE',  ( 4.275831445896958607E-31, 1.000000000000000000, 1.224646799147352961E-16 ) ) ;
#125 = CARTESIAN_POINT ( 'NONE',  ( 1.316288464743861212E-13, 1.499999999999995781, 37.69999999999999574 ) ) ;
#126 = DIRECTION ( 'NONE',  ( -4.275831445896958607E-31, -1.000000000000000000, -1.224646799147353207E-16 ) ) ;
#127 = AXIS2_PLACEMENT_3D ( 'NONE', #35, #64, #51 ) ;
#128 = CALENDAR_DATE ( 2021, 25, 11 ) ;
#129 = CC_DESIGN_APPROVAL ( #142, ( #40 ) ) ;
#130 = PERSON_AND_ORGANIZATION_ROLE ( 'classification_officer' ) ;
#131 =( LENGTH_UNIT ( ) NAMED_UNIT ( * ) SI_UNIT ( .MILLI., .METRE. ) );
#132 = ORIENTED_EDGE ( 'NONE', *, *, #138, .F. ) ;
#133 = DESIGN_CONTEXT ( 'detailed design', #116, 'design' ) ;
#134 = DIRECTION ( 'NONE',  ( -4.275831445896958607E-31, -1.000000000000000000, -1.224646799147353207E-16 ) ) ;
#135 = DIRECTION ( 'NONE',  ( 0.0000000000000000000, 1.000000000000000000, 0.0000000000000000000 ) ) ;
#136 = PLANE ( 'NONE',  #147 ) ;
#137 = VERTEX_POINT ( 'NONE', #125 ) ;
#138 = EDGE_CURVE ( 'NONE', #96, #96, #31, .T. ) ;
#139 = DIRECTION ( 'NONE',  ( -3.491481338843133355E-15, 1.224646799147353207E-16, -1.000000000000000000 ) ) ;
#140 = APPROVAL_PERSON_ORGANIZATION ( #55, #142, #170 ) ;
#141 = COORDINATED_UNIVERSAL_TIME_OFFSET ( 1, 0, .AHEAD. ) ;
#142 = APPROVAL ( #26, 'UNSPECIFIED' ) ;
#143 = CARTESIAN_POINT ( 'NONE',  ( 0.0000000000000000000, 0.0000000000000000000, 0.0000000000000000000 ) ) ;
#144 = PERSON ( 'UNSPECIFIED', 'UNSPECIFIED', 'UNSPECIFIED', ('UNSPECIFIED'), ('UNSPECIFIED'), ('UNSPECIFIED') ) ;
#145 = DATE_AND_TIME ( #109, #10 ) ;
#146 = ADVANCED_FACE ( 'NONE', ( #190, #52 ), #189, .T. ) ;
#147 = AXIS2_PLACEMENT_3D ( 'NONE', #108, #61, #134 ) ;
#148 = COORDINATED_UNIVERSAL_TIME_OFFSET ( 1, 0, .AHEAD. ) ;
#149 = EDGE_LOOP ( 'NONE', ( #119 ) ) ;
#150 = DATE_AND_TIME ( #168, #57 ) ;
#151 = ADVANCED_FACE ( 'NONE', ( #49 ), #104, .F. ) ;
#152 = ORIENTED_EDGE ( 'NONE', *, *, #167, .F. ) ;
#153 = CIRCLE ( 'NONE', #60, 0.07500000000000001110 ) ;
#154 = ADVANCED_FACE ( 'NONE', ( #3 ), #63, .T. ) ;
#155 = CARTESIAN_POINT ( 'NONE',  ( 0.0000000000000000000, 0.07500000000000001110, 0.0000000000000000000 ) ) ;
#156 = DIRECTION ( 'NONE',  ( 4.275831445896958607E-31, 1.000000000000000000, 1.224646799147353207E-16 ) ) ;
#157 = DIRECTION ( 'NONE',  ( -3.491481338843133355E-15, 1.224646799147353207E-16, -1.000000000000000000 ) ) ;
#158 = CC_DESIGN_PERSON_AND_ORGANIZATION_ASSIGNMENT ( #100, #30, ( #33 ) ) ;
#159 = DIRECTION ( 'NONE',  ( 0.0000000000000000000, 1.000000000000000000, 0.0000000000000000000 ) ) ;
#160 = CARTESIAN_POINT ( 'NONE',  ( 1.326762908760390423E-13, 1.199999999999995515, 38.00000000000000000 ) ) ;
#161 = DATE_AND_TIME ( #98, #7 ) ;
#162 = DIRECTION ( 'NONE',  ( 1.000000000000000000, 0.0000000000000000000, 0.0000000000000000000 ) ) ;
#163 = AXIS2_PLACEMENT_3D ( 'NONE', #90, #139, #4 ) ;
#164 = PERSON_AND_ORGANIZATION ( #144, #94 ) ;
#165 = APPROVAL_STATUS ( 'not_yet_approved' ) ;
#166 =( NAMED_UNIT ( * ) SI_UNIT ( $, .STERADIAN. ) SOLID_ANGLE_UNIT ( ) );
#167 = EDGE_CURVE ( 'NONE', #196, #196, #153, .T. ) ;
#168 = CALENDAR_DATE ( 2021, 25, 11 ) ;
#169 = EDGE_LOOP ( 'NONE', ( #74 ) ) ;
#170 = APPROVAL_ROLE ( '' ) ;
#171 = CIRCLE ( 'NONE', #114, 1.499999999999996225 ) ;
#172 = DIRECTION ( 'NONE',  ( -3.491481338843133355E-15, 1.224646799147353207E-16, -1.000000000000000000 ) ) ;
#173 = FACE_OUTER_BOUND ( 'NONE', #45, .T. ) ;
#174 = CLOSED_SHELL ( 'NONE', ( #28, #195, #84, #151 ) ) ;
#175 = APPLICATION_CONTEXT ( 'configuration controlled 3d designs of mechanical parts and assemblies' ) ;
#176 = DIRECTION ( 'NONE',  ( -3.491481338843133355E-15, 1.224646799147353207E-16, -1.000000000000000000 ) ) ;
#177 = DIRECTION ( 'NONE',  ( -3.491481338843133355E-15, 1.224646799147353207E-16, -1.000000000000000000 ) ) ;
#178 = CARTESIAN_POINT ( 'NONE',  ( 1.856829969409412347E-14, -6.512882807936096433E-16, 5.318172400785776688 ) ) ;
#179 = AXIS2_PLACEMENT_3D ( 'NONE', #24, #37, #48 ) ;
#180 = PERSON_AND_ORGANIZATION ( #144, #94 ) ;
#181 = EDGE_CURVE ( 'NONE', #21, #21, #171, .T. ) ;
#182 = CALENDAR_DATE ( 2021, 25, 11 ) ;
#183 = DIRECTION ( 'NONE',  ( 0.0000000000000000000, 0.0000000000000000000, 1.000000000000000000 ) ) ;
#184 = PRODUCT_RELATED_PRODUCT_CATEGORY ( 'detail', '', ( #202 ) ) ;
#185 = AXIS2_PLACEMENT_3D ( 'NONE', #106, #177, #34 ) ;
#186 = AXIS2_PLACEMENT_3D ( 'NONE', #143, #183, #162 ) ;
#187 = ORIENTED_EDGE ( 'NONE', *, *, #181, .F. ) ;
#188 = EDGE_LOOP ( 'NONE', ( #103 ) ) ;
#189 = CONICAL_SURFACE ( 'NONE', #19, 1.499999999999996225, 0.2617993877991428020 ) ;
#190 = FACE_BOUND ( 'NONE', #46, .T. ) ;
#191 = FACE_OUTER_BOUND ( 'NONE', #169, .T. ) ;
#192 = CYLINDRICAL_SURFACE ( 'NONE', #185, 1.499999999999998224 ) ;
#193 = VERTEX_POINT ( 'NONE', #38 ) ;
#194 = LOCAL_TIME ( 14, 53, 17.00000000000000000, #41 ) ;
#195 = ADVANCED_FACE ( 'NONE', ( #80, #78 ), #192, .T. ) ;
#196 = VERTEX_POINT ( 'NONE', #155 ) ;
#197 = CIRCLE ( 'NONE', #27, 1.500000000000000222 ) ;
#198 =( NAMED_UNIT ( * ) PLANE_ANGLE_UNIT ( ) SI_UNIT ( $, .RADIAN. ) );
#199 = DATE_AND_TIME ( #128, #194 ) ;
#200 = AXIS2_PLACEMENT_3D ( 'NONE', #105, #95, #156 ) ;
#201 = DATE_TIME_ROLE ( 'classification_date' ) ;
#202 = PRODUCT ( '961342', '961342', '', ( #111 ) ) ;
#203 = APPROVAL_ROLE ( '' ) ;
ENDSEC;
END-ISO-10303-21;
